  0
SECTION
  2
HEADER
  9
$ACADVER
  1
AC1009
  9
$INSBASE
 10
0.0
 20
0.0
 30
0.0
  9
$EXTMIN
 10
-170.0164808880356
 20
-266.1092845205128
 30
-0.0015258207003583
  9
$EXTMAX
 10
370.02101656534518
 20
537.08809348889997
 30
0.0000000349246037
  9
$LIMMIN
 10
0.0
 20
0.0
  9
$LIMMAX
 10
0.0
 20
0.0
  9
$ORTHOMODE
 70
     0
  9
$REGENMODE
 70
     1
  9
$FILLMODE
 70
     1
  9
$QTEXTMODE
 70
     0
  9
$MIRRTEXT
 70
     1
  9
$DRAGMODE
 70
     2
  9
$LTSCALE
 40
15.24
  9
$OSMODE
 70
   231
  9
$ATTMODE
 70
     1
  9
$TEXTSIZE
 40
0.0
  9
$TRACEWID
 40
1.0
  9
$TEXTSTYLE
  7
STANDARD
  9
$CLAYER
  8
DATA
  9
$CELTYPE
  6
BYLAYER
  9
$CECOLOR
 62
   256
  9
$DIMSCALE
 40
1.0
  9
$DIMASZ
 40
0.18
  9
$DIMEXO
 40
0.0625
  9
$DIMDLI
 40
0.38
  9
$DIMRND
 40
0.0
  9
$DIMDLE
 40
0.0
  9
$DIMEXE
 40
0.18
  9
$DIMTP
 40
0.0
  9
$DIMTM
 40
0.0
  9
$DIMTXT
 40
0.18
  9
$DIMCEN
 40
0.09
  9
$DIMTSZ
 40
0.0
  9
$DIMTOL
 70
     0
  9
$DIMLIM
 70
     0
  9
$DIMTIH
 70
     1
  9
$DIMTOH
 70
     1
  9
$DIMSE1
 70
     0
  9
$DIMSE2
 70
     0
  9
$DIMTAD
 70
     0
  9
$DIMZIN
 70
     0
  9
$DIMBLK
  1

  9
$DIMASO
 70
     1
  9
$DIMSHO
 70
     1
  9
$DIMPOST
  1

  9
$DIMAPOST
  1

  9
$DIMALT
 70
     0
  9
$DIMALTD
 70
     2
  9
$DIMALTF
 40
25.399999999999999
  9
$DIMLFAC
 40
1.0
  9
$DIMTOFL
 70
     0
  9
$DIMTVP
 40
0.0
  9
$DIMTIX
 70
     0
  9
$DIMSOXD
 70
     0
  9
$DIMSAH
 70
     0
  9
$DIMBLK1
  1

  9
$DIMBLK2
  1

  9
$DIMSTYLE
  2
STANDARD
  9
$DIMCLRD
 70
     0
  9
$DIMCLRE
 70
     0
  9
$DIMCLRT
 70
     0
  9
$DIMTFAC
 40
1.0
  9
$DIMGAP
 40
0.09
  9
$LUNITS
 70
     2
  9
$LUPREC
 70
     4
  9
$SKETCHINC
 40
0.1
  9
$FILLETRAD
 40
0.0
  9
$AUNITS
 70
     0
  9
$AUPREC
 70
     0
  9
$MENU
  1
acad
  9
$ELEVATION
 40
0.0
  9
$PELEVATION
 40
0.0
  9
$THICKNESS
 40
0.0
  9
$LIMCHECK
 70
     0
  9
$BLIPMODE
 70
     0
  9
$CHAMFERA
 40
0.0
  9
$CHAMFERB
 40
0.0
  9
$SKPOLY
 70
     0
  9
$TDCREATE
 40
2455202.7175925928
  9
$TDUPDATE
 40
2455202.7205672339
  9
$TDINDWG
 40
0.0002428356
  9
$TDUSRTIMER
 40
0.0002428356
  9
$USRTIMER
 70
     1
  9
$ANGBASE
 50
0.0
  9
$ANGDIR
 70
     0
  9
$PDMODE
 70
     1
  9
$PDSIZE
 40
-2.0
  9
$PLINEWID
 40
0.0
  9
$COORDS
 70
     0
  9
$SPLFRAME
 70
     0
  9
$SPLINETYPE
 70
     6
  9
$SPLINESEGS
 70
     8
  9
$ATTDIA
 70
     0
  9
$ATTREQ
 70
     1
  9
$HANDLING
 70
     1
  9
$HANDSEED
  5
2C1
  9
$SURFTAB1
 70
     6
  9
$SURFTAB2
 70
     6
  9
$SURFTYPE
 70
     6
  9
$SURFU
 70
     6
  9
$SURFV
 70
     6
  9
$UCSNAME
  2

  9
$UCSORG
 10
0.0
 20
0.0
 30
0.0
  9
$UCSXDIR
 10
1.0
 20
0.0
 30
0.0
  9
$UCSYDIR
 10
0.0
 20
1.0
 30
0.0
  9
$PUCSNAME
  2

  9
$PUCSORG
 10
0.0
 20
0.0
 30
0.0
  9
$PUCSXDIR
 10
1.0
 20
0.0
 30
0.0
  9
$PUCSYDIR
 10
0.0
 20
1.0
 30
0.0
  9
$USERI1
 70
     0
  9
$USERI2
 70
     0
  9
$USERI3
 70
     0
  9
$USERI4
 70
     0
  9
$USERI5
 70
     0
  9
$USERR1
 40
0.0
  9
$USERR2
 40
0.0
  9
$USERR3
 40
0.0
  9
$USERR4
 40
0.0
  9
$USERR5
 40
0.0
  9
$WORLDVIEW
 70
     1
  9
$SHADEDGE
 70
     3
  9
$SHADEDIF
 70
    70
  9
$TILEMODE
 70
     1
  9
$MAXACTVP
 70
    64
  9
$PLIMCHECK
 70
     0
  9
$PEXTMIN
 10
1.0000000000000000E+020
 20
1.0000000000000000E+020
 30
1.0000000000000000E+020
  9
$PEXTMAX
 10
-1.0000000000000000E+020
 20
-1.0000000000000000E+020
 30
-1.0000000000000000E+020
  9
$PLIMMIN
 10
0.0
 20
0.0
  9
$PLIMMAX
 10
12.0
 20
9.0
  9
$UNITMODE
 70
     0
  9
$VISRETAIN
 70
     0
  9
$PLINEGEN
 70
     1
  9
$PSLTSCALE
 70
     0
  0
ENDSEC
  0
SECTION
  2
TABLES
  0
TABLE
  2
VPORT
 70
     1
  0
VPORT
  2
*ACTIVE
 70
     0
 10
0.0
 20
0.0
 11
1.0
 21
1.0
 12
100.0022678386547
 22
135.48940448419361
 13
0.0
 23
0.0
 14
1.0
 24
1.0
 15
0.0
 25
0.0
 16
0.0
 26
0.0
 36
1.0
 17
0.0
 27
0.0
 37
0.0
 40
809.11775180309405
 41
1.9643296432964319
 42
50.0
 43
0.0
 44
0.0
 50
0.0
 51
0.0
 71
     0
 72
  2000
 73
     1
 74
     1
 75
     0
 76
     0
 77
     0
 78
     0
  0
ENDTAB
  0
TABLE
  2
LTYPE
 70
    11
  0
LTYPE
  2
CONTINUOUS
 70
     0
  3
Solid line
 72
    65
 73
     0
 40
0.0
  0
ENDTAB
  0
TABLE
  2
LAYER
 70
     5
  0
LAYER
  2
0
 70
     0
 62
     7
  6
CONTINUOUS
  0
LAYER
  2
DATA
 70
     0
 62
     7
  6
CONTINUOUS
  0
LAYER
  2
HIBINO-BASE
 70
     0
 62
     7
  6
CONTINUOUS
  0
LAYER
  2
SPEC
 70
     0
 62
     7
  6
CONTINUOUS
  0
LAYER
  2
DIMNSIONS
 70
     0
 62
     7
  6
CONTINUOUS
  0
ENDTAB
  0
TABLE
  2
STYLE
 70
     3
  0
STYLE
  2
STANDARD
 70
     0
 40
0.0
 41
1.0
 50
0.0
 71
     0
 42
0.0
  3
txt
  4
BIGFONT.SHX
  0
ENDTAB
  0
TABLE
  2
VIEW
 70
     0
  0
ENDTAB
  0
TABLE
  2
UCS
 70
     0
  0
ENDTAB
  0
TABLE
  2
APPID
 70
     3
  0
APPID
  2
ACAD
 70
     0
  0
APPID
  2
ACADANNOTATIVE
 70
     0
  0
APPID
  2
ACAD_MLEADERVER
 70
     0
  0
ENDTAB
  0
TABLE
  2
DIMSTYLE
 70
     2
  0
DIMSTYLE
  2
STANDARD
 70
     0
  3

  4

  5

  6

  7

 40
1.0
 41
0.18
 42
0.0625
 43
0.38
 44
0.18
 45
0.0
 46
0.0
 47
0.0
 48
0.0
140
0.18
141
0.09
142
0.0
143
25.399999999999999
144
1.0
145
0.0
146
1.0
147
0.09
 71
     0
 72
     0
 73
     1
 74
     1
 75
     0
 76
     0
 77
     0
 78
     0
170
     0
171
     2
172
     0
173
     0
174
     0
175
     0
176
     0
177
     0
178
     0
  0
ENDTAB
  0
ENDSEC
  0
SECTION
  2
BLOCKS
  0
BLOCK
  8
0
  2
$MODEL_SPACE
 70
     0
 10
0.0
 20
0.0
 30
0.0
  3
$MODEL_SPACE
  1

  0
ENDBLK
  5
215
  8
0
  0
BLOCK
 67
     1
  8
0
  2
$PAPER_SPACE
 70
     0
 10
0.0
 20
0.0
 30
0.0
  3
$PAPER_SPACE
  1

  0
ENDBLK
  5
211
 67
     1
  8
0
  0
ENDSEC
  0
SECTION
  2
ENTITIES
  0
LINE
  5
2C
  8
HIBINO-BASE
  6
CONTINUOUS
 62
     7
 10
-169.99999999999989
 20
537.06362999999999
 30
0.0
 11
370.0
 21
537.06362999999999
 31
0.0
  0
LINE
  5
2D
  8
HIBINO-BASE
  6
CONTINUOUS
 62
     7
 10
370.0
 20
-242.93637000000001
 30
0.0
 11
-169.99999999999989
 21
-242.93637000000001
 31
0.0
  0
LINE
  5
2E
  8
HIBINO-BASE
  6
CONTINUOUS
 62
     7
 10
-169.99999999999989
 20
-242.93637000000001
 30
0.0
 11
-169.99999999999989
 21
537.06362999999999
 31
0.0
  0
LINE
  5
2F
  8
HIBINO-BASE
  6
CONTINUOUS
 62
     7
 10
370.0
 20
537.06362999999999
 30
0.0
 11
370.0
 21
-242.93637000000001
 31
0.0
  0
LINE
  5
30
  8
HIBINO-BASE
  6
CONTINUOUS
 62
     7
 10
100.0
 20
-175.4363699999999
 30
0.0
 11
370.0
 21
-175.4363699999999
 31
0.0
  0
LINE
  5
31
  8
HIBINO-BASE
  6
CONTINUOUS
 62
     7
 10
100.0
 20
-242.93637000000001
 30
0.0
 11
100.0
 21
-175.4363699999999
 31
0.0
  0
TEXT
  5
32
  8
HIBINO-BASE
 62
     7
 10
102.7
 20
-182.96244999999999
 30
0.0
 40
4.8865234374999993
  1
NOTE
 41
0.7
 11
102.7
 21
-178.0759265625
 31
0.0
 73
     3
  0
LINE
  5
33
  8
HIBINO-BASE
  6
CONTINUOUS
 62
     7
 10
205.0
 20
-242.93637000000001
 30
0.0
 11
205.0
 21
-175.4363699999999
 31
0.0
  0
TEXT
  5
34
  8
HIBINO-BASE
 62
     7
 10
207.69999999999999
 20
-182.96244999999999
 30
0.0
 40
4.8865234374999993
  1
TITLE
 41
0.7
 11
207.69999999999999
 21
-178.0759265625
 31
0.0
 73
     3
  0
LINE
  5
35
  8
HIBINO-BASE
  6
CONTINUOUS
 62
     7
 10
100.0
 20
-212.9363699999999
 30
0.0
 11
370.0
 21
-212.9363699999999
 31
0.0
  0
TEXT
  5
36
  8
HIBINO-BASE
 62
     7
 10
245.19999999999999
 20
-220.29348999999999
 30
0.0
 40
4.8865234374999993
  1
DRAWN
 41
0.7
 11
245.19999999999999
 21
-215.4069665625
 31
0.0
 73
     3
  0
TEXT
  5
37
  8
HIBINO-BASE
 62
     7
 10
170.19999999999999
 20
-220.29348999999999
 30
0.0
 40
4.8865234374999993
  1
DATE
 41
0.7
 11
170.19999999999999
 21
-215.4069665625
 31
0.0
 73
     3
  0
TEXT
  5
38
  8
HIBINO-BASE
 62
     7
 10
140.19999999999999
 20
-220.29348999999999
 30
0.0
 40
4.8865234374999993
  1
SCALE
 41
0.7
 11
140.19999999999999
 21
-215.4069665625
 31
0.0
 73
     3
  0
TEXT
  5
39
  8
HIBINO-BASE
 62
     7
 10
207.69999999999999
 20
-220.29348999999999
 30
0.0
 40
4.8865234374999993
  1
DESIGN
 41
0.7
 11
207.69999999999999
 21
-215.4069665625
 31
0.0
 73
     3
  0
TEXT
  5
3A
  8
HIBINO-BASE
 62
     7
 10
320.19999999999999
 20
-220.29348999999999
 30
0.0
 40
4.8865234374999993
  1
DRAWING NO.
 41
0.7
 11
320.19999999999999
 21
-215.4069665625
 31
0.0
 73
     3
  0
TEXT
  5
3B
  8
HIBINO-BASE
 62
     7
 10
282.69999999999999
 20
-220.29348999999999
 30
0.0
 40
4.8865234374999993
  1
CHECK
 41
0.7
 11
282.69999999999999
 21
-215.4069665625
 31
0.0
 73
     3
  0
LINE
  5
3C
  8
HIBINO-BASE
  6
CONTINUOUS
 62
     7
 10
143.12499999999989
 20
-239.18637000000001
 30
0.0
 11
154.375
 21
-227.93637000000001
 31
0.0
  0
TEXT
  5
3D
  8
HIBINO-BASE
 62
     7
 10
141.24999999999989
 20
-231.26320000000001
 30
0.0
 40
4.8865234374999993
  1
1
 41
0.7
 11
141.24999999999989
 21
-226.37667656249999
 31
0.0
 73
     3
  0
LINE
  5
3E
  8
HIBINO-BASE
  6
CONTINUOUS
 62
     7
 10
137.5
 20
-242.93637000000001
 30
0.0
 11
137.5
 21
-212.9363699999999
 31
0.0
  0
LINE
  5
3F
  8
HIBINO-BASE
  6
CONTINUOUS
 62
     7
 10
167.5
 20
-242.93637000000001
 30
0.0
 11
167.5
 21
-212.9363699999999
 31
0.0
  0
LINE
  5
40
  8
HIBINO-BASE
  6
CONTINUOUS
 62
     7
 10
242.5
 20
-212.9363699999999
 30
0.0
 11
242.5
 21
-242.93637000000001
 31
0.0
  0
LINE
  5
41
  8
HIBINO-BASE
  6
CONTINUOUS
 62
     7
 10
317.5
 20
-212.9363699999999
 30
0.0
 11
317.5
 21
-242.93637000000001
 31
0.0
  0
LINE
  5
42
  8
HIBINO-BASE
  6
CONTINUOUS
 62
     7
 10
279.99999999999989
 20
-242.93637000000001
 30
0.0
 11
279.99999999999989
 21
-212.9363699999999
 31
0.0
  0
TEXT
  5
43
  8
HIBINO-BASE
 62
     7
 10
170.06961999999999
 20
-234.34542999999999
 30
0.0
 40
4.8865234374999993
  1
'09.12.
 41
0.7
 11
170.06961999999999
 21
-229.4589065625
 31
0.0
 73
     3
  0
TEXT
  5
44
  8
HIBINO-BASE
 62
     7
 10
152.5
 20
-236.88820000000001
 30
0.0
 40
4.8865234374999993
  1
3
 41
0.7
 11
152.5
 21
-232.00167656249999
 31
0.0
 73
     3
  0
TEXT
  5
45
  8
HIBINO-BASE
 62
     7
 10
111.65000000000001
 20
-237.00837000000001
 30
0.0
 40
9.7730468749999986
  1
A4
 41
0.7
 11
111.65000000000001
 21
-227.23532312500001
 31
0.0
 73
     3
  0
TEXT
  5
46
  8
HIBINO-BASE
 62
     7
 10
102.875
 20
-220.794735
 30
0.0
 40
4.8865234374999993
  1
PAPER SIZE
 41
0.7
 11
102.875
 21
-215.90821156249999
 31
0.0
 73
     3
  0
TEXT
  5
47
  8
HIBINO-BASE
 62
     7
 10
246.18587540893409
 20
-234.31947136494759
 30
0.0
 40
5.7009440104166647
  1
T.Ootake
 41
0.7
 11
246.18587540893409
 21
-228.61852735453101
 31
0.0
 73
     3
  0
TEXT
  5
48
  8
HIBINO-BASE
 62
     7
 10
-165.03782591995881
 20
-262.56865262676803
 30
0.0
 40
10.58746744791666
  1
Hibino-Intersound Corporation
 41
0.7
 11
-165.03782591995881
 21
-251.98118517885129
 31
0.0
 73
     3
  0
TEXT
  5
49
  8
HIBINO-BASE
 62
     7
 10
163.7119438899519
 20
-261.69059491154241
 30
0.0
 40
10.58746744791666
  1
ヒビノインターサウンド株式会社
 41
0.7
 11
163.7119438899519
 21
-251.10312746362581
 31
0.0
 73
     3
  0
LINE
  5
4A
  8
SPEC
  6
CONTINUOUS
 62
     7
 10
-147.49999999999989
 20
507.06362999999988
 30
0.0
 11
295.0
 21
507.06362999999988
 31
0.0
  0
LINE
  5
4B
  8
SPEC
  6
CONTINUOUS
 62
     7
 10
-147.49999999999989
 20
495.81362999999988
 30
0.0
 11
295.0
 21
495.81362999999988
 31
0.0
  0
LINE
  5
4C
  8
SPEC
  6
CONTINUOUS
 62
     7
 10
-147.49999999999989
 20
450.81362999999988
 30
0.0
 11
295.0
 21
450.81362999999988
 31
0.0
  0
LINE
  5
4D
  8
SPEC
  6
CONTINUOUS
 62
     7
 10
-147.49999999999989
 20
462.06362999999988
 30
0.0
 11
295.0
 21
462.06362999999988
 31
0.0
  0
LINE
  5
4E
  8
SPEC
  6
CONTINUOUS
 62
     7
 10
-147.49999999999989
 20
473.31362999999988
 30
0.0
 11
295.0
 21
473.31362999999988
 31
0.0
  0
LINE
  5
4F
  8
SPEC
  6
CONTINUOUS
 62
     7
 10
-147.49999999999989
 20
439.56362999999988
 30
0.0
 11
295.0
 21
439.56362999999988
 31
0.0
  0
LINE
  5
50
  8
SPEC
  6
CONTINUOUS
 62
     7
 10
-147.49999999999989
 20
417.06362999999988
 30
0.0
 11
295.0
 21
417.06362999999988
 31
0.0
  0
LINE
  5
51
  8
SPEC
  6
CONTINUOUS
 62
     7
 10
-147.49999999999989
 20
428.31362999999988
 30
0.0
 11
295.0
 21
428.31362999999988
 31
0.0
  0
LINE
  5
52
  8
SPEC
  6
CONTINUOUS
 62
     7
 10
-147.49999999999989
 20
484.56362999999988
 30
0.0
 11
295.0
 21
484.56362999999988
 31
0.0
  0
LINE
  5
53
  8
SPEC
  6
CONTINUOUS
 62
     7
 10
-147.49999999999989
 20
507.06362999999988
 30
0.0
 11
-147.49999999999989
 21
394.56362999999988
 31
0.0
  0
TEXT
  5
54
  8
SPEC
 62
     7
 10
-143.74999999999989
 20
511.24343999999979
 30
0.0
 40
7.3297851562499989
  1
仕様
 41
0.7
 11
-143.74999999999989
 21
518.57322515624992
 31
0.0
 73
     3
  0
LINE
  5
55
  8
SPEC
  6
CONTINUOUS
 62
     7
 10
-50.0
 20
507.06362999999988
 30
0.0
 11
-50.0
 21
394.56362999999988
 31
0.0
  0
LINE
  5
56
  8
SPEC
  6
CONTINUOUS
 62
     7
 10
295.0
 20
507.06362999999988
 30
0.0
 11
295.0
 21
394.56362999999988
 31
0.0
  0
TEXT
  5
57
  8
SPEC
 62
     7
 10
-144.98175345126029
 20
498.90439713837412
 30
0.0
 40
5.7009440104166647
  1
形式
 41
0.7
 11
-144.98175345126029
 21
504.60534114879073
 31
0.0
 73
     3
  0
LINE
  5
58
  8
SPEC
  6
CONTINUOUS
 62
     7
 10
-147.49999999999989
 20
405.81362999999988
 30
0.0
 11
295.0
 21
405.81362999999988
 31
0.0
  0
LINE
  5
59
  8
SPEC
  6
CONTINUOUS
 62
     7
 10
-147.49999999999989
 20
394.56362999999988
 30
0.0
 11
295.0
 21
394.56362999999988
 31
0.0
  0
TEXT
  5
5A
  8
SPEC
 62
     7
 10
-47.293917978586599
 20
498.09893586010031
 30
0.0
 40
5.7009440104166647
  1
2\U+00D74HDMI切替機
 41
0.7
 11
-47.293917978586599
 21
503.79987987051692
 31
0.0
 73
     3
  0
TEXT
  5
5B
  8
SPEC
 62
     7
 10
-146.14741406758981
 20
487.60483589454248
 30
0.0
 40
5.7009440104166647
  1
ビデオアンプ帯域
 41
0.7
 11
-146.14741406758981
 21
493.30577990495908
 31
0.0
 73
     3
  0
TEXT
  5
5C
  8
SPEC
 62
     7
 10
-144.99211135805541
 20
476.26805629808609
 30
0.0
 40
5.7009440104166647
  1
入力ビデオ信号
 41
0.7
 11
-144.99211135805541
 21
481.9690003085027
 31
0.0
 73
     3
  0
TEXT
  5
5D
  8
SPEC
 62
     7
 10
-144.99014090978281
 20
464.9032515775545
 30
0.0
 40
5.7009440104166647
  1
入力DDC信号
 41
0.7
 11
-144.99014090978281
 21
470.60419558797128
 31
0.0
 73
     3
  0
TEXT
  5
5E
  8
SPEC
 62
     7
 10
-144.8433599589834
 20
453.59676874363959
 30
0.0
 40
5.7009440104166647
  1
最大対応解像度
 41
0.7
 11
-144.8433599589834
 21
459.29771275405631
 31
0.0
 73
     3
  0
TEXT
  5
5F
  8
SPEC
 62
     7
 10
-144.78212463815029
 20
442.41383597245749
 30
0.0
 40
5.7009440104166647
  1
HDMI入出力端子
 41
0.7
 11
-144.78212463815029
 21
448.1147799828741
 31
0.0
 73
     3
  0
TEXT
  5
60
  8
SPEC
 62
     7
 10
-145.05493959530449
 20
431.24480189650001
 30
0.0
 40
5.7009440104166647
  1
電源
 41
0.7
 11
-145.05493959530449
 21
436.94574590691661
 31
0.0
 73
     3
  0
TEXT
  5
61
  8
SPEC
 62
     7
 10
-47.321749196273018
 20
487.66473342378418
 30
0.0
 40
5.7009440104166647
  1
225MHz
 41
0.7
 11
-47.321749196273018
 21
493.3656774342009
 31
0.0
 73
     3
  0
TEXT
  5
62
  8
SPEC
 62
     7
 10
-47.839933316565237
 20
476.78064631299918
 30
0.0
 40
5.7009440104166647
  1
1.2Vp-p
 41
0.7
 11
-47.839933316565237
 21
482.48159032341579
 31
0.0
 73
     3
  0
TEXT
  5
63
  8
SPEC
 62
     7
 10
-47.299715294479363
 20
465.48345512909708
 30
0.0
 40
5.7009440104166647
  1
5Vp-p(TTL)
 41
0.7
 11
-47.299715294479363
 21
471.1843991395138
 31
0.0
 73
     3
  0
TEXT
  5
64
  8
SPEC
 62
     7
 10
-47.797533184633792
 20
454.35005703906768
 30
0.0
 40
5.7009440104166647
  1
1080p/60 12bit color depth、1920\U+00D71200
 41
0.7
 11
-47.797533184633792
 21
460.0510010494844
 31
0.0
 73
     3
  0
TEXT
  5
65
  8
SPEC
 62
     7
 10
-47.273197296194851
 20
443.12243103718748
 30
0.0
 40
5.7009440104166647
  1
TypeA、19pinメス
 41
0.7
 11
-47.273197296194851
 21
448.8233750476042
 31
0.0
 73
     3
  0
TEXT
  5
66
  8
SPEC
 62
     7
 10
-47.243381100100471
 20
431.64966877831762
 30
0.0
 40
5.7009440104166647
  1
5V DC
 41
0.7
 11
-47.243381100100471
 21
437.35061278873428
 31
0.0
 73
     3
  0
TEXT
  5
67
  8
SPEC
 62
     7
 10
-145.08955630047899
 20
409.04008102516042
 30
0.0
 40
5.7009440104166647
  1
寸法
 41
0.7
 11
-145.08955630047899
 21
414.74102503557702
 31
0.0
 73
     3
  0
TEXT
  5
68
  8
SPEC
 62
     7
 10
-144.9990584742456
 20
397.49022835791448
 30
0.0
 40
5.7009440104166647
  1
重量
 41
0.7
 11
-144.9990584742456
 21
403.19117236833119
 31
0.0
 73
     3
  0
TEXT
  5
69
  8
SPEC
 62
     7
 10
-47.371888198026333
 20
397.72103912773218
 30
0.0
 40
5.7009440104166647
  1
約650g
 41
0.7
 11
-47.371888198026333
 21
403.4219831381489
 31
0.0
 73
     3
  0
TEXT
  5
6A
  8
SPEC
 62
     7
 10
-144.9366436708307
 20
420.18284134907191
 30
0.0
 40
5.7009440104166647
  1
消費電力
 41
0.7
 11
-144.9366436708307
 21
425.88378535948863
 31
0.0
 73
     3
  0
TEXT
  5
6B
  8
SPEC
 62
     7
 10
-47.613722265340769
 20
419.86655806782022
 30
0.0
 40
5.7009440104166647
  1
10W(最大)
 41
0.7
 11
-47.613722265340769
 21
425.56750207823688
 31
0.0
 73
     3
  0
TEXT
  5
6C
  8
SPEC
 62
     7
 10
-47.277492142371521
 20
408.71449203532211
 30
0.0
 40
5.7009440104166647
  1
240(W)\U+00D726(H)\U+00D7104(D)mm(突起部含まず)
 41
0.7
 11
-47.277492142371521
 21
414.41543604573877
 31
0.0
 73
     3
  0
TEXT
  5
6D
  8
DIMNSIONS
 62
     7
 10
40.0
 20
-206.12790000000001
 30
0.0
 40
7.3297851562499989
  1
(単位：mm)
 41
0.7
 11
40.0
 21
-198.79811484375
 31
0.0
 73
     3
  0
LINE
  5
6E
  8
DIMNSIONS
  6
CONTINUOUS
 62
     7
 10
-100.0
 20
-99.750000000000014
 30
0.0
 11
-100.0
 21
-124.75
 31
0.0
  0
LINE
  5
6F
  8
DIMNSIONS
  6
CONTINUOUS
 62
     7
 10
140.0
 20
-99.750000000000014
 30
0.0
 11
140.0
 21
-124.75
 31
0.0
  0
LINE
  5
70
  8
DIMNSIONS
  6
CONTINUOUS
 62
     7
 10
-100.0
 20
-118.75
 30
0.0
 11
140.0
 21
-118.75
 31
0.0
  0
LINE
  5
71
  8
DIMNSIONS
  6
CONTINUOUS
 62
     7
 10
-100.0
 20
-118.75
 30
0.0
 11
-92.498132324218759
 21
-116.73988061454919
 31
0.0
  0
LINE
  5
72
  8
DIMNSIONS
  6
CONTINUOUS
 62
     7
 10
-100.0
 20
-118.75
 30
0.0
 11
-92.498132324218759
 21
-120.76011938545069
 31
0.0
  0
LINE
  5
73
  8
DIMNSIONS
  6
CONTINUOUS
 62
     7
 10
140.0
 20
-118.75
 30
0.0
 11
132.49813232421869
 21
-120.76011938545069
 31
0.0
  0
LINE
  5
74
  8
DIMNSIONS
  6
CONTINUOUS
 62
     7
 10
140.0
 20
-118.75
 30
0.0
 11
132.49813232421869
 21
-116.73988061454919
 31
0.0
  0
TEXT
  5
75
  8
DIMNSIONS
 62
     7
 10
12.06249999999998
 20
-115.7683333333333
 30
0.0
 40
8.1442057291666661
  1
240
 41
0.7
 11
12.06249999999998
 21
-107.6241276041666
 31
0.0
 73
     3
  0
LINE
  5
76
  8
DIMNSIONS
  6
CONTINUOUS
 62
     7
 10
-106.0
 20
-93.75
 30
0.0
 11
-131.0
 21
-93.75
 31
0.0
  0
LINE
  5
77
  8
DIMNSIONS
  6
CONTINUOUS
 62
     7
 10
-106.0
 20
-67.75
 30
0.0
 11
-131.0
 21
-67.75
 31
0.0
  0
LINE
  5
78
  8
DIMNSIONS
  6
CONTINUOUS
 62
     7
 10
-125.0
 20
-93.75
 30
0.0
 11
-125.0
 21
-67.75
 31
0.0
  0
LINE
  5
79
  8
DIMNSIONS
  6
CONTINUOUS
 62
     7
 10
-125.0
 20
-93.75
 30
0.0
 11
-127.01011938545069
 21
-86.24813232421873
 31
0.0
  0
LINE
  5
7A
  8
DIMNSIONS
  6
CONTINUOUS
 62
     7
 10
-125.0
 20
-93.75
 30
0.0
 11
-122.98988061454919
 21
-86.24813232421873
 31
0.0
  0
LINE
  5
7B
  8
DIMNSIONS
  6
CONTINUOUS
 62
     7
 10
-125.0
 20
-67.75
 30
0.0
 11
-122.98988061454919
 21
-75.251867675781256
 31
0.0
  0
LINE
  5
7C
  8
DIMNSIONS
  6
CONTINUOUS
 62
     7
 10
-125.0
 20
-67.75
 30
0.0
 11
-127.01011938545069
 21
-75.251867675781256
 31
0.0
  0
TEXT
  5
7D
  8
DIMNSIONS
 62
     7
 10
-127.9816666666666
 20
-86.041666666666657
 30
0.0
 40
8.1442057291666661
  1
26
 50
90.0
 41
0.7
 11
-136.12587239583331
 21
-86.041666666666657
 31
0.0
 73
     3
  0
LINE
  5
7E
  8
DIMNSIONS
  6
CONTINUOUS
 62
     7
 10
-101.0
 20
-37.5
 30
0.0
 11
-131.0
 21
-37.5
 31
0.0
  0
LINE
  5
7F
  8
DIMNSIONS
  6
CONTINUOUS
 62
     7
 10
-101.0
 20
66.5
 30
0.0
 11
-131.0
 21
66.5
 31
0.0
  0
LINE
  5
80
  8
DIMNSIONS
  6
CONTINUOUS
 62
     7
 10
-125.0
 20
-37.5
 30
0.0
 11
-125.0
 21
66.5
 31
0.0
  0
LINE
  5
81
  8
DIMNSIONS
  6
CONTINUOUS
 62
     7
 10
-125.0
 20
-37.5
 30
0.0
 11
-127.01011938545069
 21
-29.998132324218751
 31
0.0
  0
LINE
  5
82
  8
DIMNSIONS
  6
CONTINUOUS
 62
     7
 10
-125.0
 20
-37.5
 30
0.0
 11
-122.98988061454919
 21
-29.998132324218751
 31
0.0
  0
LINE
  5
83
  8
DIMNSIONS
  6
CONTINUOUS
 62
     7
 10
-125.0
 20
66.5
 30
0.0
 11
-122.98988061454919
 21
58.99813232421873
 31
0.0
  0
LINE
  5
84
  8
DIMNSIONS
  6
CONTINUOUS
 62
     7
 10
-125.0
 20
66.5
 30
0.0
 11
-127.01011938545069
 21
58.99813232421873
 31
0.0
  0
TEXT
  5
85
  8
DIMNSIONS
 62
     7
 10
-127.9816666666666
 20
6.5624999999999991
 30
0.0
 40
8.1442057291666661
  1
104
 50
90.0
 41
0.7
 11
-136.12587239583331
 21
6.5625
 31
0.0
 73
     3
  0
LINE
  5
86
  8
DIMNSIONS
  6
CONTINUOUS
 62
     7
 10
-99.670000000000002
 20
-97.75
 30
0.0
 11
-131.0
 21
-97.75
 31
0.0
  0
LINE
  5
87
  8
DIMNSIONS
  6
CONTINUOUS
 62
     7
 10
-106.0
 20
-93.75
 30
0.0
 11
-131.0
 21
-93.75
 31
0.0
  0
LINE
  5
88
  8
DIMNSIONS
  6
CONTINUOUS
 62
     7
 10
-125.0
 20
-93.75
 30
0.0
 11
-125.0
 21
-97.75
 31
0.0
  0
LINE
  5
89
  8
DIMNSIONS
  6
CONTINUOUS
 62
     7
 10
-125.0
 20
-97.75
 30
0.0
 11
-125.0
 21
-110.7916666666666
 31
0.0
  0
LINE
  5
8A
  8
DIMNSIONS
  6
CONTINUOUS
 62
     7
 10
-125.0
 20
-97.75
 30
0.0
 11
-122.98988061454919
 21
-105.2518676757812
 31
0.0
  0
LINE
  5
8B
  8
DIMNSIONS
  6
CONTINUOUS
 62
     7
 10
-125.0
 20
-97.75
 30
0.0
 11
-127.01011938545069
 21
-105.2518676757812
 31
0.0
  0
LINE
  5
8C
  8
DIMNSIONS
  6
CONTINUOUS
 62
     7
 10
-125.0
 20
-93.75
 30
0.0
 11
-125.0
 21
-78.75
 31
0.0
  0
LINE
  5
8D
  8
DIMNSIONS
  6
CONTINUOUS
 62
     7
 10
-125.0
 20
-93.75
 30
0.0
 11
-127.01011938545069
 21
-86.24813232421873
 31
0.0
  0
LINE
  5
8E
  8
DIMNSIONS
  6
CONTINUOUS
 62
     7
 10
-125.0
 20
-93.75
 30
0.0
 11
-122.98988061454919
 21
-86.24813232421873
 31
0.0
  0
TEXT
  5
8F
  8
DIMNSIONS
 62
     7
 10
-127.9816666666667
 20
-110.7916666666666
 30
0.0
 40
8.1442057291666661
  1
4
 50
90.0
 41
0.7
 11
-136.1258723958334
 21
-110.7916666666666
 31
0.0
 73
     3
  0
LINE
  5
90
  8
DIMNSIONS
  6
CONTINUOUS
 62
     7
 10
-101.0
 20
66.5
 30
0.0
 11
-131.0
 21
66.5
 31
0.0
  0
LINE
  5
91
  8
DIMNSIONS
  6
CONTINUOUS
 62
     7
 10
-53.500000000000021
 20
72.5
 30
0.0
 11
-131.0
 21
72.5
 31
0.0
  0
LINE
  5
92
  8
DIMNSIONS
  6
CONTINUOUS
 62
     7
 10
-125.0
 20
72.5
 30
0.0
 11
-125.0
 21
66.5
 31
0.0
  0
LINE
  5
93
  8
DIMNSIONS
  6
CONTINUOUS
 62
     7
 10
-125.0
 20
66.5
 30
0.0
 11
-125.0
 21
51.5
 31
0.0
  0
LINE
  5
94
  8
DIMNSIONS
  6
CONTINUOUS
 62
     7
 10
-125.0
 20
66.5
 30
0.0
 11
-122.98988061454919
 21
58.99813232421873
 31
0.0
  0
LINE
  5
95
  8
DIMNSIONS
  6
CONTINUOUS
 62
     7
 10
-125.0
 20
66.5
 30
0.0
 11
-127.01011938545069
 21
58.99813232421873
 31
0.0
  0
LINE
  5
96
  8
DIMNSIONS
  6
CONTINUOUS
 62
     7
 10
-125.0
 20
72.5
 30
0.0
 11
-125.0
 21
85.491666666666674
 31
0.0
  0
LINE
  5
97
  8
DIMNSIONS
  6
CONTINUOUS
 62
     7
 10
-125.0
 20
72.5
 30
0.0
 11
-127.01011938545069
 21
80.001867675781256
 31
0.0
  0
LINE
  5
98
  8
DIMNSIONS
  6
CONTINUOUS
 62
     7
 10
-125.0
 20
72.5
 30
0.0
 11
-122.98988061454919
 21
80.001867675781256
 31
0.0
  0
TEXT
  5
99
  8
DIMNSIONS
 62
     7
 10
-127.9816666666667
 20
80.200000000000017
 30
0.0
 40
8.1442057291666661
  1
6
 50
90.0
 41
0.7
 11
-136.1258723958334
 21
80.200000000000017
 31
0.0
 73
     3
  0
TEXT
  5
9A
  8
DATA
 62
     7
 10
-139.99999999999989
 20
-230.22237000000001
 30
0.0
 40
4.8865234374999993
  1
仕様および外観は予告なく変更されることがありますので、ご了承ください。
 41
0.7
 11
-139.99999999999989
 21
-225.3358465625
 31
0.0
 73
     3
  0
LINE
  5
9B
  8
DATA
  6
CONTINUOUS
 62
     7
 10
200.0
 20
-93.75
 30
0.0
 11
304.0
 21
-93.75
 31
0.0
  0
LINE
  5
9C
  8
DATA
  6
CONTINUOUS
 62
     7
 10
-100.0
 20
-32.5
 30
0.0
 11
-100.0
 21
61.5
 31
0.0
  0
LINE
  5
9D
  8
DATA
  6
CONTINUOUS
 62
     7
 10
-100.0
 20
-93.75
 30
0.0
 11
-100.0
 21
-67.75
 31
0.0
  0
LINE
  5
9E
  8
DATA
  6
CONTINUOUS
 62
     7
 10
140.0
 20
-93.75
 30
0.0
 11
-100.0
 21
-93.75
 31
0.0
  0
LINE
  5
9F
  8
DATA
  6
CONTINUOUS
 62
     7
 10
140.0
 20
-67.75
 30
0.0
 11
140.0
 21
-93.75
 31
0.0
  0
LINE
  5
A0
  8
DATA
  6
CONTINUOUS
 62
     7
 10
-100.0
 20
-67.75
 30
0.0
 11
140.0
 21
-67.75
 31
0.0
  0
LINE
  5
A1
  8
DATA
  6
CONTINUOUS
 62
     7
 10
-95.0
 20
-37.5
 30
0.0
 11
135.0
 21
-37.5
 31
0.0
  0
LINE
  5
A2
  8
DATA
  6
CONTINUOUS
 62
     7
 10
-95.0
 20
66.5
 30
0.0
 11
135.0
 21
66.5
 31
0.0
  0
LINE
  5
A3
  8
DATA
  6
CONTINUOUS
 62
     7
 10
140.0
 20
-32.5
 30
0.0
 11
140.0
 21
61.5
 31
0.0
  0
LINE
  5
A4
  8
DATA
  6
CONTINUOUS
 62
     7
 10
200.0
 20
-93.75
 30
0.0
 11
200.0
 21
-67.75
 31
0.0
  0
LINE
  5
A5
  8
DATA
  6
CONTINUOUS
 62
     7
 10
304.0
 20
-93.75
 30
0.0
 11
304.0
 21
-67.75
 31
0.0
  0
LINE
  5
A6
  8
DATA
  6
CONTINUOUS
 62
     7
 10
200.0
 20
-67.75
 30
0.0
 11
304.0
 21
-67.75
 31
0.0
  0
LINE
  5
A7
  8
DATA
  6
CONTINUOUS
 62
     7
 10
-93.670000000000002
 20
-97.75
 30
0.0
 11
-75.330000000000013
 21
-97.75
 31
0.0
  0
LINE
  5
A8
  8
DATA
  6
CONTINUOUS
 62
     7
 10
-94.0
 20
-93.75
 30
0.0
 11
-93.670000000000002
 21
-97.75
 31
0.0
  0
LINE
  5
A9
  8
DATA
  6
CONTINUOUS
 62
     7
 10
-75.000000000000014
 20
-93.75
 30
0.0
 11
-75.330000000000013
 21
-97.75
 31
0.0
  0
LINE
  5
AA
  8
DATA
  6
CONTINUOUS
 62
     7
 10
133.6699999999999
 20
-97.75
 30
0.0
 11
115.33
 21
-97.75
 31
0.0
  0
LINE
  5
AB
  8
DATA
  6
CONTINUOUS
 62
     7
 10
134.0
 20
-93.75
 30
0.0
 11
133.6699999999999
 21
-97.75
 31
0.0
  0
LINE
  5
AC
  8
DATA
  6
CONTINUOUS
 62
     7
 10
115.0
 20
-93.75
 30
0.0
 11
115.33
 21
-97.75
 31
0.0
  0
CIRCLE
  5
AD
  8
DATA
  6
CONTINUOUS
 62
     7
 10
-25.000000000000011
 20
-81.75
 30
0.0
 40
1.5
  0
CIRCLE
  5
AE
  8
DATA
  6
CONTINUOUS
 62
     7
 10
-8.5000000000000142
 20
-81.75
 30
0.0
 40
1.5
  0
CIRCLE
  5
AF
  8
DATA
  6
CONTINUOUS
 62
     7
 10
7.9999999999999867
 20
-81.75
 30
0.0
 40
1.5
  0
CIRCLE
  5
B0
  8
DATA
  6
CONTINUOUS
 62
     7
 10
24.499999999999989
 20
-81.75
 30
0.0
 40
1.5
  0
CIRCLE
  5
B1
  8
DATA
  6
CONTINUOUS
 62
     7
 10
40.999999999999993
 20
-81.75
 30
0.0
 40
1.5
  0
CIRCLE
  5
B2
  8
DATA
  6
CONTINUOUS
 62
     7
 10
-61.000000000000021
 20
-81.75
 30
0.0
 40
1.5
  0
CIRCLE
  5
B3
  8
DATA
  6
CONTINUOUS
 62
     7
 10
-45.000000000000021
 20
-79.884066647734528
 30
0.0
 40
4.8499999999999934
  0
TEXT
  5
B4
  8
DATA
 62
     7
 10
-64.833715549480402
 20
-89.766102533090816
 30
0.0
 40
2.2396565755208329
  1
Power
 41
0.7
 11
-64.833715549480402
 21
-87.526445957569976
 31
0.0
 73
     3
  0
TEXT
  5
B5
  8
DATA
 62
     7
 10
-47.17927314099007
 20
-89.462502009742849
 30
0.0
 40
2.4758385416666662
  1
IR
 41
0.7
 11
-47.17927314099007
 21
-86.986663468076173
 31
0.0
 73
     3
  0
TEXT
  5
B6
  8
DATA
 62
     7
 10
-27.328763328058681
 20
-89.766102533090816
 30
0.0
 40
2.2396565755208329
  1
Int
 41
0.7
 11
-27.328763328058681
 21
-87.526445957569976
 31
0.0
 73
     3
  0
TEXT
  5
B7
  8
DATA
 62
     7
 10
-10.49833461256676
 20
-89.766102533090816
 30
0.0
 40
2.2396565755208329
  1
Ext
 41
0.7
 11
-10.49833461256676
 21
-87.526445957569976
 31
0.0
 73
     3
  0
TEXT
  5
B8
  8
DATA
 62
     7
 10
5.1522186149032194
 20
-89.766102533090816
 30
0.0
 40
2.2396565755208329
  1
Link
 41
0.7
 11
5.1522186149032194
 21
-87.526445957569976
 31
0.0
 73
     3
  0
TEXT
  5
B9
  8
DATA
 62
     7
 10
23.76630304164453
 20
-89.766102533090816
 30
0.0
 40
2.2396565755208329
  1
1
 41
0.7
 11
23.76630304164453
 21
-87.526445957569976
 31
0.0
 73
     3
  0
TEXT
  5
BA
  8
DATA
 62
     7
 10
40.04417673282974
 20
-89.766102533090816
 30
0.0
 40
2.2396565755208329
  1
2
 41
0.7
 11
40.04417673282974
 21
-87.526445957569976
 31
0.0
 73
     3
  0
TEXT
  5
BB
  8
DATA
 62
     7
 10
87.78678196436914
 20
-80.627379462340599
 30
0.0
 40
3.2576822916666659
  1
2\U+00D74Switcher
 41
0.7
 11
87.78678196436914
 21
-77.36969717067393
 31
0.0
 73
     3
  0
TEXT
  5
BC
  8
DATA
 62
     7
 10
83.741890182868218
 20
-87.663858186466726
 30
0.0
 40
4.2349869791666652
  1
for
 41
0.7
 11
83.741890182868218
 21
-83.428871207300062
 31
0.0
 73
     3
  0
TEXT
  5
BD
  8
DATA
 62
     7
 10
93.655989963612313
 20
-87.663858186466726
 30
0.0
 40
4.2349869791666652
  1
HDMI
 41
0.7
 11
93.655989963612313
 21
-83.428871207300062
 31
0.0
 73
     3
  0
TEXT
  5
BE
  8
DATA
 62
     7
 10
105.6305303463628
 20
-87.665727582984559
 30
0.0
 40
3.387989583333332
  1
1.3
 41
0.7
 11
105.6305303463628
 21
-84.277737999651237
 31
0.0
 73
     3
  0
ARC
  5
BF
  8
DATA
  6
CONTINUOUS
 62
     7
 10
-95.0
 20
-32.5
 30
0.0
 40
5.0
 50
180.0
 51
270.0
  0
ARC
  5
C0
  8
DATA
  6
CONTINUOUS
 62
     7
 10
-95.0
 20
61.5
 30
0.0
 40
5.0
 50
90.0
 51
180.0
  0
ARC
  5
C1
  8
DATA
  6
CONTINUOUS
 62
     7
 10
135.0
 20
61.5
 30
0.0
 40
5.0
 50
0.0
 51
90.0
  0
ARC
  5
C2
  8
DATA
  6
CONTINUOUS
 62
     7
 10
135.0
 20
-32.5
 30
0.0
 40
5.0
 50
270.0
 51
0.0
  0
ARC
  5
C3
  8
DATA
  6
CONTINUOUS
 62
     7
 10
-60.998453195895841
 20
-37.687015319716771
 30
0.0
 40
1.5129854709727799
 50
172.8996916046267
 51
7.9475869483201498
  0
ARC
  5
C4
  8
DATA
  6
CONTINUOUS
 62
     7
 10
-24.998453195895841
 20
-37.687015319716771
 30
0.0
 40
1.5129854709727799
 50
172.8996916046267
 51
7.9475869483201498
  0
ARC
  5
C5
  8
DATA
  6
CONTINUOUS
 62
     7
 10
-8.4984531958958343
 20
-37.687015319716771
 30
0.0
 40
1.5129854709727799
 50
172.8996916046267
 51
7.9475869483201498
  0
ARC
  5
C6
  8
DATA
  6
CONTINUOUS
 62
     7
 10
8.0015468041041622
 20
-37.687015319716771
 30
0.0
 40
1.5129854709727799
 50
172.8996916046267
 51
7.9475869483201498
  0
ARC
  5
C7
  8
DATA
  6
CONTINUOUS
 62
     7
 10
24.501546804104169
 20
-37.687015319716771
 30
0.0
 40
1.5129854709727799
 50
172.8996916046267
 51
7.9475869483201498
  0
ARC
  5
C8
  8
DATA
  6
CONTINUOUS
 62
     7
 10
41.001546804104173
 20
-37.687015319716771
 30
0.0
 40
1.5129854709727799
 50
172.8996916046267
 51
7.9475869483201498
  0
ARC
  5
C9
  8
DATA
  6
CONTINUOUS
 62
     7
 10
57.501546804104173
 20
-37.687015319716771
 30
0.0
 40
1.5129854709727799
 50
172.8996916046267
 51
7.9475869483201498
  0
ARC
  5
CA
  8
DATA
  6
CONTINUOUS
 62
     7
 10
74.001546804104152
 20
-37.687015319716771
 30
0.0
 40
1.5129854709727799
 50
172.8996916046267
 51
7.9475869483201498
  0
LINE
  5
CB
  8
DATA
  6
CONTINUOUS
 62
     7
 10
-100.0
 20
157.25
 30
0.0
 11
-100.0
 21
131.25
 31
0.0
  0
LINE
  5
CC
  8
DATA
  6
CONTINUOUS
 62
     7
 10
140.0
 20
157.25
 30
0.0
 11
-100.0
 21
157.25
 31
0.0
  0
LINE
  5
CD
  8
DATA
  6
CONTINUOUS
 62
     7
 10
140.0
 20
131.25
 30
0.0
 11
140.0
 21
157.25
 31
0.0
  0
LINE
  5
CE
  8
DATA
  6
CONTINUOUS
 62
     7
 10
-100.0
 20
131.25
 30
0.0
 11
140.0
 21
131.25
 31
0.0
  0
LINE
  5
CF
  8
DATA
  6
CONTINUOUS
 62
     7
 10
-93.670000000000002
 20
161.25
 30
0.0
 11
-75.330000000000013
 21
161.25
 31
0.0
  0
LINE
  5
D0
  8
DATA
  6
CONTINUOUS
 62
     7
 10
-94.0
 20
157.25
 30
0.0
 11
-93.670000000000002
 21
161.25
 31
0.0
  0
LINE
  5
D1
  8
DATA
  6
CONTINUOUS
 62
     7
 10
-75.000000000000014
 20
157.25
 30
0.0
 11
-75.330000000000013
 21
161.25
 31
0.0
  0
LINE
  5
D2
  8
DATA
  6
CONTINUOUS
 62
     7
 10
133.6699999999999
 20
161.25
 30
0.0
 11
115.33
 21
161.25
 31
0.0
  0
LINE
  5
D3
  8
DATA
  6
CONTINUOUS
 62
     7
 10
134.0
 20
157.25
 30
0.0
 11
133.6699999999999
 21
161.25
 31
0.0
  0
LINE
  5
D4
  8
DATA
  6
CONTINUOUS
 62
     7
 10
115.0
 20
157.25
 30
0.0
 11
115.33
 21
161.25
 31
0.0
  0
POLYLINE
  5
D5
  8
DATA
  6
CONTINUOUS
 62
     7
 66
     1
 10
0.0
 20
0.0
 30
0.0
 70
     1
  0
VERTEX
  5
241
  8
DATA
  6
CONTINUOUS
 62
     7
 10
-47.500000000000021
 20
134.8066243270259
 30
0.0
  0
VERTEX
  5
242
  8
DATA
  6
CONTINUOUS
 62
     7
 10
-45.000000000000021
 20
133.3632486540518
 30
0.0
  0
VERTEX
  5
243
  8
DATA
  6
CONTINUOUS
 62
     7
 10
-42.500000000000007
 20
134.8066243270259
 30
0.0
  0
VERTEX
  5
244
  8
DATA
  6
CONTINUOUS
 62
     7
 10
-42.500000000000007
 20
137.6933756729741
 30
0.0
  0
VERTEX
  5
245
  8
DATA
  6
CONTINUOUS
 62
     7
 10
-45.000000000000021
 20
139.13675134594811
 30
0.0
  0
VERTEX
  5
246
  8
DATA
  6
CONTINUOUS
 62
     7
 10
-47.500000000000021
 20
137.6933756729741
 30
0.0
  0
SEQEND
  5
247
  8
DATA
  6
CONTINUOUS
 62
     7
  0
CIRCLE
  5
DE
  8
DATA
  6
CONTINUOUS
 62
     7
 10
-45.000000000000021
 20
136.25
 30
0.0
 40
1.25
  0
POLYLINE
  5
DF
  8
DATA
  6
CONTINUOUS
 62
     7
 66
     1
 10
0.0
 20
0.0
 30
0.0
 70
     1
  0
VERTEX
  5
248
  8
DATA
  6
CONTINUOUS
 62
     7
 10
-23.500000000000011
 20
134.8066243270259
 30
0.0
  0
VERTEX
  5
249
  8
DATA
  6
CONTINUOUS
 62
     7
 10
-21.000000000000011
 20
133.3632486540518
 30
0.0
  0
VERTEX
  5
24A
  8
DATA
  6
CONTINUOUS
 62
     7
 10
-18.500000000000011
 20
134.8066243270259
 30
0.0
  0
VERTEX
  5
24B
  8
DATA
  6
CONTINUOUS
 62
     7
 10
-18.500000000000011
 20
137.6933756729741
 30
0.0
  0
VERTEX
  5
24C
  8
DATA
  6
CONTINUOUS
 62
     7
 10
-21.000000000000011
 20
139.13675134594811
 30
0.0
  0
VERTEX
  5
24D
  8
DATA
  6
CONTINUOUS
 62
     7
 10
-23.500000000000011
 20
137.6933756729741
 30
0.0
  0
SEQEND
  5
24E
  8
DATA
  6
CONTINUOUS
 62
     7
  0
CIRCLE
  5
E8
  8
DATA
  6
CONTINUOUS
 62
     7
 10
-21.000000000000011
 20
136.25
 30
0.0
 40
1.25
  0
POLYLINE
  5
E9
  8
DATA
  6
CONTINUOUS
 62
     7
 66
     1
 10
0.0
 20
0.0
 30
0.0
 70
     1
  0
VERTEX
  5
24F
  8
DATA
  6
CONTINUOUS
 62
     7
 10
0.4999999999999858
 20
134.8066243270259
 30
0.0
  0
VERTEX
  5
250
  8
DATA
  6
CONTINUOUS
 62
     7
 10
2.9999999999999849
 20
133.3632486540518
 30
0.0
  0
VERTEX
  5
251
  8
DATA
  6
CONTINUOUS
 62
     7
 10
5.4999999999999849
 20
134.8066243270259
 30
0.0
  0
VERTEX
  5
252
  8
DATA
  6
CONTINUOUS
 62
     7
 10
5.4999999999999849
 20
137.6933756729741
 30
0.0
  0
VERTEX
  5
253
  8
DATA
  6
CONTINUOUS
 62
     7
 10
2.9999999999999849
 20
139.13675134594811
 30
0.0
  0
VERTEX
  5
254
  8
DATA
  6
CONTINUOUS
 62
     7
 10
0.4999999999999858
 20
137.6933756729741
 30
0.0
  0
SEQEND
  5
255
  8
DATA
  6
CONTINUOUS
 62
     7
  0
CIRCLE
  5
F2
  8
DATA
  6
CONTINUOUS
 62
     7
 10
2.9999999999999849
 20
136.25
 30
0.0
 40
1.25
  0
POLYLINE
  5
F3
  8
DATA
  6
CONTINUOUS
 62
     7
 66
     1
 10
0.0
 20
0.0
 30
0.0
 70
     1
  0
VERTEX
  5
256
  8
DATA
  6
CONTINUOUS
 62
     7
 10
24.499999999999989
 20
134.8066243270259
 30
0.0
  0
VERTEX
  5
257
  8
DATA
  6
CONTINUOUS
 62
     7
 10
26.999999999999989
 20
133.3632486540518
 30
0.0
  0
VERTEX
  5
258
  8
DATA
  6
CONTINUOUS
 62
     7
 10
29.499999999999989
 20
134.8066243270259
 30
0.0
  0
VERTEX
  5
259
  8
DATA
  6
CONTINUOUS
 62
     7
 10
29.499999999999989
 20
137.6933756729741
 30
0.0
  0
VERTEX
  5
25A
  8
DATA
  6
CONTINUOUS
 62
     7
 10
26.999999999999989
 20
139.13675134594811
 30
0.0
  0
VERTEX
  5
25B
  8
DATA
  6
CONTINUOUS
 62
     7
 10
24.499999999999989
 20
137.6933756729741
 30
0.0
  0
SEQEND
  5
25C
  8
DATA
  6
CONTINUOUS
 62
     7
  0
CIRCLE
  5
FC
  8
DATA
  6
CONTINUOUS
 62
     7
 10
26.999999999999989
 20
136.25
 30
0.0
 40
1.25
  0
POLYLINE
  5
FD
  8
DATA
  6
CONTINUOUS
 62
     7
 66
     1
 10
0.0
 20
0.0
 30
0.0
 70
     1
  0
VERTEX
  5
25D
  8
DATA
  6
CONTINUOUS
 62
     7
 10
48.499999999999993
 20
134.8066243270259
 30
0.0
  0
VERTEX
  5
25E
  8
DATA
  6
CONTINUOUS
 62
     7
 10
50.999999999999993
 20
133.3632486540518
 30
0.0
  0
VERTEX
  5
25F
  8
DATA
  6
CONTINUOUS
 62
     7
 10
53.499999999999993
 20
134.8066243270259
 30
0.0
  0
VERTEX
  5
260
  8
DATA
  6
CONTINUOUS
 62
     7
 10
53.499999999999993
 20
137.6933756729741
 30
0.0
  0
VERTEX
  5
261
  8
DATA
  6
CONTINUOUS
 62
     7
 10
50.999999999999993
 20
139.13675134594811
 30
0.0
  0
VERTEX
  5
262
  8
DATA
  6
CONTINUOUS
 62
     7
 10
48.499999999999993
 20
137.6933756729741
 30
0.0
  0
SEQEND
  5
263
  8
DATA
  6
CONTINUOUS
 62
     7
  0
CIRCLE
  5
106
  8
DATA
  6
CONTINUOUS
 62
     7
 10
50.999999999999993
 20
136.25
 30
0.0
 40
1.25
  0
POLYLINE
  5
107
  8
DATA
  6
CONTINUOUS
 62
     7
 66
     1
 10
0.0
 20
0.0
 30
0.0
 70
     1
  0
VERTEX
  5
264
  8
DATA
  6
CONTINUOUS
 62
     7
 10
72.499999999999986
 20
134.8066243270259
 30
0.0
  0
VERTEX
  5
265
  8
DATA
  6
CONTINUOUS
 62
     7
 10
74.999999999999986
 20
133.3632486540518
 30
0.0
  0
VERTEX
  5
266
  8
DATA
  6
CONTINUOUS
 62
     7
 10
77.499999999999986
 20
134.8066243270259
 30
0.0
  0
VERTEX
  5
267
  8
DATA
  6
CONTINUOUS
 62
     7
 10
77.499999999999986
 20
137.6933756729741
 30
0.0
  0
VERTEX
  5
268
  8
DATA
  6
CONTINUOUS
 62
     7
 10
74.999999999999986
 20
139.13675134594811
 30
0.0
  0
VERTEX
  5
269
  8
DATA
  6
CONTINUOUS
 62
     7
 10
72.499999999999986
 20
137.6933756729741
 30
0.0
  0
SEQEND
  5
26A
  8
DATA
  6
CONTINUOUS
 62
     7
  0
CIRCLE
  5
110
  8
DATA
  6
CONTINUOUS
 62
     7
 10
74.999999999999986
 20
136.25
 30
0.0
 40
1.25
  0
POLYLINE
  5
111
  8
DATA
  6
CONTINUOUS
 62
     7
 66
     1
 10
0.0
 20
0.0
 30
0.0
  0
VERTEX
  5
26B
  8
DATA
  6
CONTINUOUS
 62
     7
 10
-53.008347705578913
 20
146.28405878330889
 30
0.0
  0
VERTEX
  5
26C
  8
DATA
  6
CONTINUOUS
 62
     7
 10
-53.008347705578913
 20
142.28405878330889
 30
0.0
  0
VERTEX
  5
26D
  8
DATA
  6
CONTINUOUS
 62
     7
 10
-37.008347705578849
 20
142.28405878330889
 30
0.0
  0
VERTEX
  5
26E
  8
DATA
  6
CONTINUOUS
 62
     7
 10
-37.008347705578849
 20
146.28405878330889
 30
0.0
  0
SEQEND
  5
26F
  8
DATA
  6
CONTINUOUS
 62
     7
  0
LINE
  5
118
  8
DATA
  6
CONTINUOUS
 62
     7
 10
-39.508347705579247
 20
148.28405878330889
 30
0.0
 11
-50.508347705578558
 21
148.28405878330889
 31
0.0
  0
ARC
  5
119
  8
DATA
  6
CONTINUOUS
 62
     7
 10
-54.277531379048199
 20
150.4330383751456
 30
0.0
 40
4.338762363909578
 50
287.0090081320962
 51
330.31060837608288
  0
ARC
  5
11A
  8
DATA
  6
CONTINUOUS
 62
     7
 10
-35.739164032109493
 20
150.4330383751456
 30
0.0
 40
4.3387623639096686
 50
209.68939162391609
 51
252.99099186790269
  0
TEXT
  5
11B
  8
DATA
 62
     7
 10
-41.189832401622603
 20
153.9792154309261
 30
0.0
 40
2.7147352430555549
  1
Out 4
 50
180.0
 41
0.7
 11
-41.189832401622603
 21
151.2644801878705
 31
0.0
 73
     3
  0
POLYLINE
  5
11C
  8
DATA
  6
CONTINUOUS
 62
     7
 66
     1
 10
0.0
 20
0.0
 30
0.0
  0
VERTEX
  5
270
  8
DATA
  6
CONTINUOUS
 62
     7
 10
-29.00834770557891
 20
146.28405878330889
 30
0.0
  0
VERTEX
  5
271
  8
DATA
  6
CONTINUOUS
 62
     7
 10
-29.00834770557891
 20
142.28405878330889
 30
0.0
  0
VERTEX
  5
272
  8
DATA
  6
CONTINUOUS
 62
     7
 10
-13.008347705578849
 20
142.28405878330889
 30
0.0
  0
VERTEX
  5
273
  8
DATA
  6
CONTINUOUS
 62
     7
 10
-13.008347705578849
 20
146.28405878330889
 30
0.0
  0
SEQEND
  5
274
  8
DATA
  6
CONTINUOUS
 62
     7
  0
LINE
  5
123
  8
DATA
  6
CONTINUOUS
 62
     7
 10
-15.50834770557926
 20
148.28405878330889
 30
0.0
 11
-26.508347705578569
 21
148.28405878330889
 31
0.0
  0
ARC
  5
124
  8
DATA
  6
CONTINUOUS
 62
     7
 10
-30.277531379048199
 20
150.4330383751456
 30
0.0
 40
4.338762363909578
 50
287.0090081320962
 51
330.31060837608288
  0
ARC
  5
125
  8
DATA
  6
CONTINUOUS
 62
     7
 10
-11.73916403210948
 20
150.4330383751456
 30
0.0
 40
4.3387623639096686
 50
209.68939162391609
 51
252.99099186790269
  0
TEXT
  5
126
  8
DATA
 62
     7
 10
-17.18983240162261
 20
153.9792154309261
 30
0.0
 40
2.7147352430555549
  1
Out 3
 50
180.0
 41
0.7
 11
-17.18983240162261
 21
151.2644801878705
 31
0.0
 73
     3
  0
POLYLINE
  5
127
  8
DATA
  6
CONTINUOUS
 62
     7
 66
     1
 10
0.0
 20
0.0
 30
0.0
  0
VERTEX
  5
275
  8
DATA
  6
CONTINUOUS
 62
     7
 10
-5.0083477055789132
 20
146.28405878330889
 30
0.0
  0
VERTEX
  5
276
  8
DATA
  6
CONTINUOUS
 62
     7
 10
-5.0083477055789132
 20
142.28405878330889
 30
0.0
  0
VERTEX
  5
277
  8
DATA
  6
CONTINUOUS
 62
     7
 10
10.99165229442114
 20
142.28405878330889
 30
0.0
  0
VERTEX
  5
278
  8
DATA
  6
CONTINUOUS
 62
     7
 10
10.99165229442114
 20
146.28405878330889
 30
0.0
  0
SEQEND
  5
279
  8
DATA
  6
CONTINUOUS
 62
     7
  0
LINE
  5
12E
  8
DATA
  6
CONTINUOUS
 62
     7
 10
8.4916522944207458
 20
148.28405878330889
 30
0.0
 11
-2.5083477055785721
 21
148.28405878330889
 31
0.0
  0
ARC
  5
12F
  8
DATA
  6
CONTINUOUS
 62
     7
 10
-6.2775313790481979
 20
150.4330383751456
 30
0.0
 40
4.338762363909578
 50
287.0090081320962
 51
330.31060837608288
  0
ARC
  5
130
  8
DATA
  6
CONTINUOUS
 62
     7
 10
12.260835967890509
 20
150.4330383751456
 30
0.0
 40
4.3387623639096686
 50
209.68939162391609
 51
252.99099186790269
  0
TEXT
  5
131
  8
DATA
 62
     7
 10
6.8101675983773911
 20
153.9792154309261
 30
0.0
 40
2.7147352430555549
  1
Out 2
 50
180.0
 41
0.7
 11
6.8101675983773902
 21
151.2644801878705
 31
0.0
 73
     3
  0
POLYLINE
  5
132
  8
DATA
  6
CONTINUOUS
 62
     7
 66
     1
 10
0.0
 20
0.0
 30
0.0
  0
VERTEX
  5
27A
  8
DATA
  6
CONTINUOUS
 62
     7
 10
18.99165229442109
 20
146.28405878330889
 30
0.0
  0
VERTEX
  5
27B
  8
DATA
  6
CONTINUOUS
 62
     7
 10
18.99165229442109
 20
142.28405878330889
 30
0.0
  0
VERTEX
  5
27C
  8
DATA
  6
CONTINUOUS
 62
     7
 10
34.991652294421151
 20
142.28405878330889
 30
0.0
  0
VERTEX
  5
27D
  8
DATA
  6
CONTINUOUS
 62
     7
 10
34.991652294421151
 20
146.28405878330889
 30
0.0
  0
SEQEND
  5
27E
  8
DATA
  6
CONTINUOUS
 62
     7
  0
LINE
  5
139
  8
DATA
  6
CONTINUOUS
 62
     7
 10
32.491652294420753
 20
148.28405878330889
 30
0.0
 11
21.491652294421431
 21
148.28405878330889
 31
0.0
  0
ARC
  5
13A
  8
DATA
  6
CONTINUOUS
 62
     7
 10
17.722468620951801
 20
150.4330383751456
 30
0.0
 40
4.338762363909578
 50
287.0090081320962
 51
330.31060837608288
  0
ARC
  5
13B
  8
DATA
  6
CONTINUOUS
 62
     7
 10
36.260835967890522
 20
150.4330383751456
 30
0.0
 40
4.3387623639096686
 50
209.68939162391609
 51
252.99099186790269
  0
POLYLINE
  5
13C
  8
DATA
  6
CONTINUOUS
 62
     7
 66
     1
 10
0.0
 20
0.0
 30
0.0
  0
VERTEX
  5
27F
  8
DATA
  6
CONTINUOUS
 62
     7
 10
42.991652294421087
 20
146.28405878330889
 30
0.0
  0
VERTEX
  5
280
  8
DATA
  6
CONTINUOUS
 62
     7
 10
42.991652294421087
 20
142.28405878330889
 30
0.0
  0
VERTEX
  5
281
  8
DATA
  6
CONTINUOUS
 62
     7
 10
58.991652294421137
 20
142.28405878330889
 30
0.0
  0
VERTEX
  5
282
  8
DATA
  6
CONTINUOUS
 62
     7
 10
58.991652294421137
 20
146.28405878330889
 30
0.0
  0
SEQEND
  5
283
  8
DATA
  6
CONTINUOUS
 62
     7
  0
LINE
  5
143
  8
DATA
  6
CONTINUOUS
 62
     7
 10
56.491652294420739
 20
148.28405878330889
 30
0.0
 11
45.491652294421428
 21
148.28405878330889
 31
0.0
  0
ARC
  5
144
  8
DATA
  6
CONTINUOUS
 62
     7
 10
41.722468620951787
 20
150.4330383751456
 30
0.0
 40
4.338762363909578
 50
287.0090081320962
 51
330.31060837608288
  0
ARC
  5
145
  8
DATA
  6
CONTINUOUS
 62
     7
 10
60.260835967890522
 20
150.4330383751456
 30
0.0
 40
4.3387623639096686
 50
209.68939162391609
 51
252.99099186790269
  0
POLYLINE
  5
146
  8
DATA
  6
CONTINUOUS
 62
     7
 66
     1
 10
0.0
 20
0.0
 30
0.0
  0
VERTEX
  5
284
  8
DATA
  6
CONTINUOUS
 62
     7
 10
66.991652294421087
 20
146.28405878330889
 30
0.0
  0
VERTEX
  5
285
  8
DATA
  6
CONTINUOUS
 62
     7
 10
66.991652294421087
 20
142.28405878330889
 30
0.0
  0
VERTEX
  5
286
  8
DATA
  6
CONTINUOUS
 62
     7
 10
82.991652294421144
 20
142.28405878330889
 30
0.0
  0
VERTEX
  5
287
  8
DATA
  6
CONTINUOUS
 62
     7
 10
82.991652294421144
 20
146.28405878330889
 30
0.0
  0
SEQEND
  5
288
  8
DATA
  6
CONTINUOUS
 62
     7
  0
LINE
  5
14D
  8
DATA
  6
CONTINUOUS
 62
     7
 10
80.491652294420717
 20
148.28405878330889
 30
0.0
 11
69.491652294421428
 21
148.28405878330889
 31
0.0
  0
ARC
  5
14E
  8
DATA
  6
CONTINUOUS
 62
     7
 10
65.722468620951801
 20
150.4330383751456
 30
0.0
 40
4.338762363909578
 50
287.0090081320962
 51
330.31060837608288
  0
ARC
  5
14F
  8
DATA
  6
CONTINUOUS
 62
     7
 10
84.260835967890515
 20
150.4330383751456
 30
0.0
 40
4.3387623639096686
 50
209.68939162391609
 51
252.99099186790269
  0
TEXT
  5
150
  8
DATA
 62
     7
 10
30.81016759837739
 20
153.9792154309261
 30
0.0
 40
2.7147352430555549
  1
Out 1
 50
180.0
 41
0.7
 11
30.81016759837739
 21
151.2644801878705
 31
0.0
 73
     3
  0
TEXT
  5
151
  8
DATA
 62
     7
 10
54.81016759837739
 20
153.9792154309261
 30
0.0
 40
2.7147352430555549
  1
In 2
 50
180.0
 41
0.7
 11
54.81016759837739
 21
151.2644801878705
 31
0.0
 73
     3
  0
TEXT
  5
152
  8
DATA
 62
     7
 10
78.81016759837739
 20
153.9792154309261
 30
0.0
 40
2.7147352430555549
  1
In 1
 50
180.0
 41
0.7
 11
78.81016759837739
 21
151.2644801878705
 31
0.0
 73
     3
  0
LINE
  5
153
  8
DATA
  6
CONTINUOUS
 62
     7
 10
-64.008347705578913
 20
137.27075363127221
 30
0.0
 11
-64.008347705578913
 21
148.27075363127221
 31
0.0
  0
LINE
  5
154
  8
DATA
  6
CONTINUOUS
 62
     7
 10
-73.008347705578913
 20
137.27075363127221
 30
0.0
 11
-73.008347705578913
 21
148.27075363127221
 31
0.0
  0
LINE
  5
155
  8
DATA
  6
CONTINUOUS
 62
     7
 10
-73.008347705578913
 20
137.27075363127221
 30
0.0
 11
-64.008347705578913
 21
137.27075363127221
 31
0.0
  0
LINE
  5
156
  8
DATA
  6
CONTINUOUS
 62
     7
 10
-73.008347705578913
 20
148.27075363127221
 30
0.0
 11
-64.008347705578913
 21
148.27075363127221
 31
0.0
  0
CIRCLE
  5
157
  8
DATA
  6
CONTINUOUS
 62
     7
 10
-68.508347705578913
 20
142.2707536312723
 30
0.0
 40
3.0999999999999939
  0
CIRCLE
  5
158
  8
DATA
  6
CONTINUOUS
 62
     7
 10
-68.508347705578913
 20
142.2707536312723
 30
0.0
 40
0.5
  0
TEXT
  5
159
  8
DATA
 62
     7
 10
-63.431027249541742
 20
153.9792154309261
 30
0.0
 40
2.7147352430555549
  1
5V DC
 50
180.0
 41
0.7
 11
-63.431027249541742
 21
151.2644801878705
 31
0.0
 73
     3
  0
CIRCLE
  5
15A
  8
DATA
  6
CONTINUOUS
 62
     7
 10
93.999999999999986
 20
144.9273435527366
 30
0.0
 40
2.0
  0
CIRCLE
  5
15B
  8
DATA
  6
CONTINUOUS
 62
     7
 10
107.0
 20
144.9273435527366
 30
0.0
 40
2.0
  0
TEXT
  5
15C
  8
DATA
 62
     7
 10
98.065348446136909
 20
153.9792154309261
 30
0.0
 40
2.7147352430555549
  1
Reset
 50
180.0
 41
0.7
 11
98.065348446136909
 21
151.2644801878705
 31
0.0
 73
     3
  0
TEXT
  5
15D
  8
DATA
 62
     7
 10
111.2119353118017
 20
153.9792154309261
 30
0.0
 40
2.7147352430555549
  1
EDID
 50
180.0
 41
0.7
 11
111.2119353118017
 21
151.2644801878705
 31
0.0
 73
     3
  0
LINE
  5
15E
  8
DATA
  6
CONTINUOUS
 62
     7
 10
-47.500000000000021
 20
72.5
 30
0.0
 11
-47.500000000000021
 21
66.5
 31
0.0
  0
LINE
  5
15F
  8
DATA
  6
CONTINUOUS
 62
     7
 10
-42.500000000000007
 20
72.5
 30
0.0
 11
-42.500000000000007
 21
66.5
 31
0.0
  0
LINE
  5
160
  8
DATA
  6
CONTINUOUS
 62
     7
 10
-47.500000000000021
 20
72.5
 30
0.0
 11
-42.500000000000007
 21
72.5
 31
0.0
  0
LINE
  5
161
  8
DATA
  6
CONTINUOUS
 62
     7
 10
-23.500000000000011
 20
72.5
 30
0.0
 11
-23.500000000000011
 21
66.5
 31
0.0
  0
LINE
  5
162
  8
DATA
  6
CONTINUOUS
 62
     7
 10
-18.500000000000011
 20
72.5
 30
0.0
 11
-18.500000000000011
 21
66.5
 31
0.0
  0
LINE
  5
163
  8
DATA
  6
CONTINUOUS
 62
     7
 10
-23.500000000000011
 20
72.5
 30
0.0
 11
-18.500000000000011
 21
72.5
 31
0.0
  0
LINE
  5
164
  8
DATA
  6
CONTINUOUS
 62
     7
 10
0.4999999999999858
 20
72.5
 30
0.0
 11
0.4999999999999858
 21
66.5
 31
0.0
  0
LINE
  5
165
  8
DATA
  6
CONTINUOUS
 62
     7
 10
5.4999999999999849
 20
72.5
 30
0.0
 11
5.4999999999999849
 21
66.5
 31
0.0
  0
LINE
  5
166
  8
DATA
  6
CONTINUOUS
 62
     7
 10
0.4999999999999858
 20
72.5
 30
0.0
 11
5.4999999999999849
 21
72.5
 31
0.0
  0
LINE
  5
167
  8
DATA
  6
CONTINUOUS
 62
     7
 10
24.499999999999989
 20
72.5
 30
0.0
 11
24.499999999999989
 21
66.5
 31
0.0
  0
LINE
  5
168
  8
DATA
  6
CONTINUOUS
 62
     7
 10
29.499999999999989
 20
72.5
 30
0.0
 11
29.499999999999989
 21
66.5
 31
0.0
  0
LINE
  5
169
  8
DATA
  6
CONTINUOUS
 62
     7
 10
24.499999999999989
 20
72.5
 30
0.0
 11
29.499999999999989
 21
72.5
 31
0.0
  0
LINE
  5
16A
  8
DATA
  6
CONTINUOUS
 62
     7
 10
48.499999999999993
 20
72.5
 30
0.0
 11
48.499999999999993
 21
66.5
 31
0.0
  0
LINE
  5
16B
  8
DATA
  6
CONTINUOUS
 62
     7
 10
53.499999999999993
 20
72.5
 30
0.0
 11
53.499999999999993
 21
66.5
 31
0.0
  0
LINE
  5
16C
  8
DATA
  6
CONTINUOUS
 62
     7
 10
48.499999999999993
 20
72.5
 30
0.0
 11
53.499999999999993
 21
72.5
 31
0.0
  0
LINE
  5
16D
  8
DATA
  6
CONTINUOUS
 62
     7
 10
72.499999999999986
 20
72.5
 30
0.0
 11
72.499999999999986
 21
66.5
 31
0.0
  0
LINE
  5
16E
  8
DATA
  6
CONTINUOUS
 62
     7
 10
77.499999999999986
 20
72.5
 30
0.0
 11
77.499999999999986
 21
66.5
 31
0.0
  0
LINE
  5
16F
  8
DATA
  6
CONTINUOUS
 62
     7
 10
72.499999999999986
 20
72.5
 30
0.0
 11
77.499999999999986
 21
72.5
 31
0.0
  0
LINE
  5
170
  8
DATA
  6
CONTINUOUS
 62
     7
 10
91.999999999999986
 20
68.5
 30
0.0
 11
91.999999999999986
 21
66.5
 31
0.0
  0
LINE
  5
171
  8
DATA
  6
CONTINUOUS
 62
     7
 10
95.998291247973043
 20
68.5
 30
0.0
 11
95.998291247973043
 21
66.5
 31
0.0
  0
LINE
  5
172
  8
DATA
  6
CONTINUOUS
 62
     7
 10
105.0
 20
68.5
 30
0.0
 11
105.0
 21
66.5
 31
0.0
  0
LINE
  5
173
  8
DATA
  6
CONTINUOUS
 62
     7
 10
109.0
 20
68.5
 30
0.0
 11
109.0
 21
66.5
 31
0.0
  0
LINE
  5
174
  8
DATA
  6
CONTINUOUS
 62
     7
 10
91.999999999999986
 20
68.5
 30
0.0
 11
95.998291247973043
 21
68.5
 31
0.0
  0
LINE
  5
175
  8
DATA
  6
CONTINUOUS
 62
     7
 10
105.0
 20
68.5
 30
0.0
 11
109.0
 21
68.5
 31
0.0
  0
LINE
  5
176
  8
DATA
  6
CONTINUOUS
 62
     7
 10
-93.800000000000026
 20
64.5
 30
0.0
 11
133.80000000000001
 21
64.5
 31
0.0
  0
LINE
  5
177
  8
DATA
  6
CONTINUOUS
 62
     7
 10
-93.800000000000026
 20
-35.5
 30
0.0
 11
133.80000000000001
 21
-35.5
 31
0.0
  0
LINE
  5
178
  8
DATA
  6
CONTINUOUS
 62
     7
 10
-98.0
 20
-31.300000000000011
 30
0.0
 11
-98.0
 21
60.299999999999997
 31
0.0
  0
LINE
  5
179
  8
DATA
  6
CONTINUOUS
 62
     7
 10
138.0
 20
-31.300000000000011
 30
0.0
 11
138.0
 21
60.299999999999997
 31
0.0
  0
ARC
  5
17A
  8
DATA
  6
CONTINUOUS
 62
     7
 10
-93.800000000000026
 20
-31.300000000000011
 30
0.0
 40
4.1999999999999877
 50
180.0
 51
270.0
  0
ARC
  5
17B
  8
DATA
  6
CONTINUOUS
 62
     7
 10
-93.800000000000026
 20
60.300000000000011
 30
0.0
 40
4.1999999999999877
 50
90.0
 51
180.0000000000002
  0
ARC
  5
17C
  8
DATA
  6
CONTINUOUS
 62
     7
 10
133.80000000000001
 20
60.299999999999997
 30
0.0
 40
4.200000000000002
 50
0.0
 51
90.0
  0
ARC
  5
17D
  8
DATA
  6
CONTINUOUS
 62
     7
 10
133.80000000000001
 20
-31.300000000000011
 30
0.0
 40
4.1999999999999877
 50
270.0
 51
0.0
  0
LINE
  5
17E
  8
DATA
  6
CONTINUOUS
 62
     7
 10
235.68914944682089
 20
-97.75
 30
0.0
 11
217.34914944682009
 21
-97.75
 31
0.0
  0
LINE
  5
17F
  8
DATA
  6
CONTINUOUS
 62
     7
 10
236.01914944682099
 20
-93.75
 30
0.0
 11
235.68914944682089
 21
-97.75
 31
0.0
  0
LINE
  5
180
  8
DATA
  6
CONTINUOUS
 62
     7
 10
217.01914944682011
 20
-93.75
 30
0.0
 11
217.34914944682009
 21
-97.75
 31
0.0
  0
LINE
  5
181
  8
DATA
  6
CONTINUOUS
 62
     7
 10
295.68914944682092
 20
-97.75
 30
0.0
 11
277.34914944682009
 21
-97.75
 31
0.0
  0
LINE
  5
182
  8
DATA
  6
CONTINUOUS
 62
     7
 10
296.01914944682102
 20
-93.75
 30
0.0
 11
295.68914944682092
 21
-97.75
 31
0.0
  0
LINE
  5
183
  8
DATA
  6
CONTINUOUS
 62
     7
 10
277.01914944682022
 20
-93.75
 30
0.0
 11
277.34914944682009
 21
-97.75
 31
0.0
  0
LINE
  5
184
  8
DATA
  6
CONTINUOUS
 62
     7
 10
208.0
 20
-93.75
 30
0.0
 11
208.0
 21
-71.5
 31
0.0
  0
LINE
  5
185
  8
DATA
  6
CONTINUOUS
 62
     7
 10
208.0
 20
-71.5
 30
0.0
 11
204.90000000000001
 21
-71.5
 31
0.0
  0
LINE
  5
186
  8
DATA
  6
CONTINUOUS
 62
     7
 10
204.90000000000001
 20
-67.75
 30
0.0
 11
204.90000000000001
 21
-71.5
 31
0.0
  0
CIRCLE
  5
187
  8
DATA
  6
CONTINUOUS
 62
     7
 10
212.5
 20
-76.75
 30
0.0
 40
2.25
  0
LINE
  5
188
  8
DATA
  6
CONTINUOUS
 62
     7
 10
211.37
 20
-76.75
 30
0.0
 11
213.63
 21
-76.75
 31
0.0
  0
LINE
  5
189
  8
DATA
  6
CONTINUOUS
 62
     7
 10
212.5
 20
-77.879999999999981
 30
0.0
 11
212.5
 21
-75.620000000000005
 31
0.0
  0
CIRCLE
  5
18A
  8
DATA
  6
CONTINUOUS
 62
     7
 10
212.5
 20
-89.749999999999986
 30
0.0
 40
2.25
  0
LINE
  5
18B
  8
DATA
  6
CONTINUOUS
 62
     7
 10
211.37
 20
-89.749999999999986
 30
0.0
 11
213.63
 21
-89.749999999999986
 31
0.0
  0
LINE
  5
18C
  8
DATA
  6
CONTINUOUS
 62
     7
 10
212.5
 20
-90.879999999999995
 30
0.0
 11
212.5
 21
-88.620000000000005
 31
0.0
  0
ARC
  5
18D
  8
DATA
  6
CONTINUOUS
 62
     7
 10
199.79080378789621
 20
-81.74861720204926
 30
0.0
 40
1.5129854709727031
 50
82.052413051679849
 51
277.1003083953733
  0
LINE
  5
18E
  8
DATA
  6
CONTINUOUS
 62
     7
 10
310.0
 20
-75.25
 30
0.0
 11
310.0
 21
-70.25
 31
0.0
  0
LINE
  5
18F
  8
DATA
  6
CONTINUOUS
 62
     7
 10
310.0
 20
-75.25
 30
0.0
 11
304.0
 21
-75.25
 31
0.0
  0
LINE
  5
190
  8
DATA
  6
CONTINUOUS
 62
     7
 10
304.0
 20
-70.25
 30
0.0
 11
310.0
 21
-70.25
 31
0.0
  0
TEXT
  5
191
  8
DATA
 62
     7
 10
249.76339404981169
 20
-208.7686688784905
 30
0.0
 40
7.3297851562499989
  1
EXT-HDMI1.3-244
 41
0.7
 11
249.76339404981169
 21
-201.43888372224049
 31
0.0
 73
     3
  0
TEXT
  5
192
  8
DATA
 62
     7
 10
243.7760958563768
 20
-196.08128894105249
 30
0.0
 40
4.8865234374999993
  1
2\U+00D74HDMI切替機
 41
0.7
 11
243.7760958563768
 21
-191.1947655035525
 31
0.0
 73
     3
  0
LINE
  5
193
  8
DATA
  6
CONTINUOUS
 62
     7
 10
306.0
 20
-83.450000000000003
 30
0.0
 11
306.0
 21
-79.450000000000003
 31
0.0
  0
POLYLINE
  5
194
  8
DATA
  6
CONTINUOUS
 62
     7
 66
     1
 10
0.0
 20
0.0
 30
0.0
  0
VERTEX
  5
289
  8
DATA
  6
CONTINUOUS
 62
     7
 10
306.0
 20
-83.450000000000003
 30
0.0
  0
VERTEX
  5
28A
  8
DATA
  6
CONTINUOUS
 62
     7
 10
304.0
 20
-83.450000000000003
 30
0.0
  0
VERTEX
  5
28B
  8
DATA
  6
CONTINUOUS
 62
     7
 10
304.0
 20
-79.450000000000003
 30
0.0
  0
VERTEX
  5
28C
  8
DATA
  6
CONTINUOUS
 62
     7
 10
306.0
 20
-79.450000000000003
 30
0.0
  0
SEQEND
  5
28D
  8
DATA
  6
CONTINUOUS
 62
     7
  0
TEXT
  5
19B
  8
DATA
 62
     7
 10
249.8760181932069
 20
-185.8165000000001
 30
0.0
 40
7.3297851562499989
  1
Gefen
 41
0.7
 11
249.8760181932069
 21
-178.48671484375001
 31
0.0
 73
     3
  0
ENDSEC
  0
EOF
