  0
SECTION
  2
HEADER
  9
$ACADVER
  1
AC1009
  9
$INSBASE
 10
0.0
 20
0.0
 30
0.0
  9
$EXTMIN
 10
49.981691723202402
 20
11.90643626254314
 30
-0.0015258207003583
  9
$EXTMAX
 10
950.02899391114363
 20
1350.04120187373
 30
0.0000000349246037
  9
$LIMMIN
 10
0.0
 20
0.0
  9
$LIMMAX
 10
0.0
 20
0.0
  9
$ORTHOMODE
 70
     0
  9
$REGENMODE
 70
     1
  9
$FILLMODE
 70
     1
  9
$QTEXTMODE
 70
     0
  9
$MIRRTEXT
 70
     1
  9
$DRAGMODE
 70
     2
  9
$LTSCALE
 40
25.399999999999999
  9
$OSMODE
 70
   231
  9
$ATTMODE
 70
     1
  9
$TEXTSIZE
 40
0.0
  9
$TRACEWID
 40
1.0
  9
$TEXTSTYLE
  7
STANDARD
  9
$CLAYER
  8
DATA
  9
$CELTYPE
  6
BYLAYER
  9
$CECOLOR
 62
   256
  9
$DIMSCALE
 40
1.0
  9
$DIMASZ
 40
0.18
  9
$DIMEXO
 40
0.0625
  9
$DIMDLI
 40
0.38
  9
$DIMRND
 40
0.0
  9
$DIMDLE
 40
0.0
  9
$DIMEXE
 40
0.18
  9
$DIMTP
 40
0.0
  9
$DIMTM
 40
0.0
  9
$DIMTXT
 40
0.18
  9
$DIMCEN
 40
0.09
  9
$DIMTSZ
 40
0.0
  9
$DIMTOL
 70
     0
  9
$DIMLIM
 70
     0
  9
$DIMTIH
 70
     1
  9
$DIMTOH
 70
     1
  9
$DIMSE1
 70
     0
  9
$DIMSE2
 70
     0
  9
$DIMTAD
 70
     0
  9
$DIMZIN
 70
     0
  9
$DIMBLK
  1

  9
$DIMASO
 70
     1
  9
$DIMSHO
 70
     1
  9
$DIMPOST
  1

  9
$DIMAPOST
  1

  9
$DIMALT
 70
     0
  9
$DIMALTD
 70
     2
  9
$DIMALTF
 40
25.399999999999999
  9
$DIMLFAC
 40
1.0
  9
$DIMTOFL
 70
     0
  9
$DIMTVP
 40
0.0
  9
$DIMTIX
 70
     0
  9
$DIMSOXD
 70
     0
  9
$DIMSAH
 70
     0
  9
$DIMBLK1
  1

  9
$DIMBLK2
  1

  9
$DIMSTYLE
  2
STANDARD
  9
$DIMCLRD
 70
     0
  9
$DIMCLRE
 70
     0
  9
$DIMCLRT
 70
     0
  9
$DIMTFAC
 40
1.0
  9
$DIMGAP
 40
0.09
  9
$LUNITS
 70
     2
  9
$LUPREC
 70
     4
  9
$SKETCHINC
 40
0.1
  9
$FILLETRAD
 40
0.0
  9
$AUNITS
 70
     0
  9
$AUPREC
 70
     0
  9
$MENU
  1
acad
  9
$ELEVATION
 40
0.0
  9
$PELEVATION
 40
0.0
  9
$THICKNESS
 40
0.0
  9
$LIMCHECK
 70
     0
  9
$BLIPMODE
 70
     0
  9
$CHAMFERA
 40
0.0
  9
$CHAMFERB
 40
0.0
  9
$SKPOLY
 70
     0
  9
$TDCREATE
 40
2455223.8604050931
  9
$TDUPDATE
 40
2455223.8611416901
  9
$TDINDWG
 40
0.0002539005
  9
$TDUSRTIMER
 40
0.0002537153
  9
$USRTIMER
 70
     1
  9
$ANGBASE
 50
0.0
  9
$ANGDIR
 70
     0
  9
$PDMODE
 70
     1
  9
$PDSIZE
 40
-2.0
  9
$PLINEWID
 40
0.0
  9
$COORDS
 70
     0
  9
$SPLFRAME
 70
     0
  9
$SPLINETYPE
 70
     6
  9
$SPLINESEGS
 70
     8
  9
$ATTDIA
 70
     0
  9
$ATTREQ
 70
     1
  9
$HANDLING
 70
     1
  9
$HANDSEED
  5
573
  9
$SURFTAB1
 70
     6
  9
$SURFTAB2
 70
     6
  9
$SURFTYPE
 70
     6
  9
$SURFU
 70
     6
  9
$SURFV
 70
     6
  9
$UCSNAME
  2

  9
$UCSORG
 10
0.0
 20
0.0
 30
0.0
  9
$UCSXDIR
 10
1.0
 20
0.0
 30
0.0
  9
$UCSYDIR
 10
0.0
 20
1.0
 30
0.0
  9
$PUCSNAME
  2

  9
$PUCSORG
 10
0.0
 20
0.0
 30
0.0
  9
$PUCSXDIR
 10
1.0
 20
0.0
 30
0.0
  9
$PUCSYDIR
 10
0.0
 20
1.0
 30
0.0
  9
$USERI1
 70
     0
  9
$USERI2
 70
     0
  9
$USERI3
 70
     0
  9
$USERI4
 70
     0
  9
$USERI5
 70
     0
  9
$USERR1
 40
0.0
  9
$USERR2
 40
0.0
  9
$USERR3
 40
0.0
  9
$USERR4
 40
0.0
  9
$USERR5
 40
0.0
  9
$WORLDVIEW
 70
     1
  9
$SHADEDGE
 70
     3
  9
$SHADEDIF
 70
    70
  9
$TILEMODE
 70
     1
  9
$MAXACTVP
 70
    64
  9
$PLIMCHECK
 70
     0
  9
$PEXTMIN
 10
1.0000000000000000E+020
 20
1.0000000000000000E+020
 30
1.0000000000000000E+020
  9
$PEXTMAX
 10
-1.0000000000000000E+020
 20
-1.0000000000000000E+020
 30
-1.0000000000000000E+020
  9
$PLIMMIN
 10
0.0
 20
0.0
  9
$PLIMMAX
 10
12.0
 20
9.0
  9
$UNITMODE
 70
     0
  9
$VISRETAIN
 70
     0
  9
$PLINEGEN
 70
     1
  9
$PSLTSCALE
 70
     0
  0
ENDSEC
  0
SECTION
  2
TABLES
  0
TABLE
  2
VPORT
 70
     1
  0
VPORT
  2
*ACTIVE
 70
     0
 10
0.0
 20
0.0
 11
1.0
 21
1.0
 12
500.00534281717307
 22
680.97381906813655
 13
0.0
 23
0.0
 14
1.0
 24
1.0
 15
0.0
 25
0.0
 16
0.0
 26
0.0
 36
1.0
 17
0.0
 27
0.0
 37
0.0
 40
1347.9981668319081
 41
1.964329643296433
 42
50.0
 43
0.0
 44
0.0
 50
0.0
 51
0.0
 71
     0
 72
  2000
 73
     1
 74
     1
 75
     0
 76
     0
 77
     0
 78
     0
  0
ENDTAB
  0
TABLE
  2
LTYPE
 70
    11
  0
LTYPE
  2
CONTINUOUS
 70
     0
  3
Solid line
 72
    65
 73
     0
 40
0.0
  0
ENDTAB
  0
TABLE
  2
LAYER
 70
     5
  0
LAYER
  2
0
 70
     0
 62
     7
  6
CONTINUOUS
  0
LAYER
  2
DATA
 70
     0
 62
     7
  6
CONTINUOUS
  0
LAYER
  2
HIBINO-BASE
 70
     0
 62
     7
  6
CONTINUOUS
  0
LAYER
  2
SPEC
 70
     0
 62
     7
  6
CONTINUOUS
  0
LAYER
  2
DIMNSIONS
 70
     0
 62
     7
  6
CONTINUOUS
  0
ENDTAB
  0
TABLE
  2
STYLE
 70
     3
  0
STYLE
  2
STANDARD
 70
     0
 40
0.0
 41
1.0
 50
0.0
 71
     0
 42
0.0
  3
txt
  4
BIGFONT.SHX
  0
ENDTAB
  0
TABLE
  2
VIEW
 70
     0
  0
ENDTAB
  0
TABLE
  2
UCS
 70
     0
  0
ENDTAB
  0
TABLE
  2
APPID
 70
     3
  0
APPID
  2
ACAD
 70
     0
  0
APPID
  2
ACADANNOTATIVE
 70
     0
  0
APPID
  2
ACAD_MLEADERVER
 70
     0
  0
ENDTAB
  0
TABLE
  2
DIMSTYLE
 70
     2
  0
DIMSTYLE
  2
STANDARD
 70
     0
  3

  4

  5

  6

  7

 40
1.0
 41
0.18
 42
0.0625
 43
0.38
 44
0.18
 45
0.0
 46
0.0
 47
0.0
 48
0.0
140
0.18
141
0.09
142
0.0
143
25.399999999999999
144
1.0
145
0.0
146
1.0
147
0.09
 71
     0
 72
     0
 73
     1
 74
     1
 75
     0
 76
     0
 77
     0
 78
     0
170
     0
171
     2
172
     0
173
     0
174
     0
175
     0
176
     0
177
     0
178
     0
  0
ENDTAB
  0
ENDSEC
  0
SECTION
  2
BLOCKS
  0
BLOCK
  8
0
  2
$MODEL_SPACE
 70
     0
 10
0.0
 20
0.0
 30
0.0
  3
$MODEL_SPACE
  1

  0
ENDBLK
  5
335
  8
0
  0
BLOCK
 67
     1
  8
0
  2
$PAPER_SPACE
 70
     0
 10
0.0
 20
0.0
 30
0.0
  3
$PAPER_SPACE
  1

  0
ENDBLK
  5
331
 67
     1
  8
0
  0
ENDSEC
  0
SECTION
  2
ENTITIES
  0
LINE
  5
2C
  8
HIBINO-BASE
  6
CONTINUOUS
 62
     7
 10
50.0
 20
1350.0
 30
0.0
 11
950.0
 21
1350.0
 31
0.0
  0
LINE
  5
2D
  8
HIBINO-BASE
  6
CONTINUOUS
 62
     7
 10
950.0
 20
50.0
 30
0.0
 11
50.0
 21
50.0
 31
0.0
  0
LINE
  5
2E
  8
HIBINO-BASE
  6
CONTINUOUS
 62
     7
 10
50.0
 20
50.0
 30
0.0
 11
50.0
 21
1350.0
 31
0.0
  0
TEXT
  5
2F
  8
HIBINO-BASE
 62
     7
 10
62.82012861104743
 20
17.956611000000098
 30
0.0
 40
18.00022089843749
  1
Hibino-Intersound Corporation
 41
0.7
 11
62.82012861104743
 21
35.956831898437599
 31
0.0
 73
     3
1001
ACADANNOTATIVE
1000
AnnotativeData
1002
{
1070
     1
1070
     0
1002
}
  0
LINE
  5
30
  8
HIBINO-BASE
  6
CONTINUOUS
 62
     7
 10
950.0
 20
1350.0
 30
0.0
 11
950.0
 21
50.0
 31
0.0
  0
LINE
  5
31
  8
HIBINO-BASE
  6
CONTINUOUS
 62
     7
 10
500.0
 20
162.50000000000011
 30
0.0
 11
950.0
 21
162.50000000000011
 31
0.0
  0
LINE
  5
32
  8
HIBINO-BASE
  6
CONTINUOUS
 62
     7
 10
500.0
 20
50.0
 30
0.0
 11
500.0
 21
162.50000000000011
 31
0.0
  0
TEXT
  5
33
  8
HIBINO-BASE
 62
     7
 10
504.49999999999989
 20
149.9565333333334
 30
0.0
 40
8.1442057291666661
  1
NOTE
 41
0.7
 11
504.49999999999989
 21
158.10073906250011
 31
0.0
 73
     3
1001
ACADANNOTATIVE
1000
AnnotativeData
1002
{
1070
     1
1070
     0
1002
}
  0
LINE
  5
34
  8
HIBINO-BASE
  6
CONTINUOUS
 62
     7
 10
675.0
 20
50.0
 30
0.0
 11
675.0
 21
162.50000000000011
 31
0.0
  0
TEXT
  5
35
  8
HIBINO-BASE
 62
     7
 10
679.49999999999989
 20
149.9565333333334
 30
0.0
 40
8.1442057291666661
  1
TITLE
 41
0.7
 11
679.49999999999989
 21
158.10073906250011
 31
0.0
 73
     3
1001
ACADANNOTATIVE
1000
AnnotativeData
1002
{
1070
     1
1070
     0
1002
}
  0
TEXT
  5
36
  8
HIBINO-BASE
 62
     7
 10
595.06609521503515
 20
16.861363937191111
 30
0.0
 40
18.00022089843749
  1
ヒビノインターサウンド株式会社
 41
0.7
 11
595.06609521503515
 21
34.861584835628598
 31
0.0
 73
     3
1001
ACADANNOTATIVE
1000
AnnotativeData
1002
{
1070
     1
1070
     0
1002
}
  0
LINE
  5
37
  8
HIBINO-BASE
  6
CONTINUOUS
 62
     7
 10
500.0
 20
100.0000000000001
 30
0.0
 11
950.0
 21
100.0000000000001
 31
0.0
  0
TEXT
  5
38
  8
HIBINO-BASE
 62
     7
 10
742.0
 20
87.738133333333465
 30
0.0
 40
8.1442057291666661
  1
DRAWN
 41
0.7
 11
742.0
 21
95.882339062500137
 31
0.0
 73
     3
1001
ACADANNOTATIVE
1000
AnnotativeData
1002
{
1070
     1
1070
     0
1002
}
  0
TEXT
  5
39
  8
HIBINO-BASE
 62
     7
 10
617.0
 20
87.738133333333465
 30
0.0
 40
8.1442057291666661
  1
DATE
 41
0.7
 11
617.0
 21
95.882339062500137
 31
0.0
 73
     3
1001
ACADANNOTATIVE
1000
AnnotativeData
1002
{
1070
     1
1070
     0
1002
}
  0
TEXT
  5
3A
  8
HIBINO-BASE
 62
     7
 10
567.0
 20
87.738133333333465
 30
0.0
 40
8.1442057291666661
  1
SCALE
 41
0.7
 11
567.0
 21
95.882339062500137
 31
0.0
 73
     3
1001
ACADANNOTATIVE
1000
AnnotativeData
1002
{
1070
     1
1070
     0
1002
}
  0
TEXT
  5
3B
  8
HIBINO-BASE
 62
     7
 10
679.49999999999989
 20
87.738133333333465
 30
0.0
 40
8.1442057291666661
  1
DESIGN
 41
0.7
 11
679.49999999999989
 21
95.882339062500137
 31
0.0
 73
     3
1001
ACADANNOTATIVE
1000
AnnotativeData
1002
{
1070
     1
1070
     0
1002
}
  0
TEXT
  5
3C
  8
HIBINO-BASE
 62
     7
 10
867.0
 20
87.738133333333465
 30
0.0
 40
8.1442057291666661
  1
DRAWING NO.
 41
0.7
 11
867.0
 21
95.882339062500137
 31
0.0
 73
     3
1001
ACADANNOTATIVE
1000
AnnotativeData
1002
{
1070
     1
1070
     0
1002
}
  0
TEXT
  5
3D
  8
HIBINO-BASE
 62
     7
 10
804.49999999999989
 20
87.738133333333465
 30
0.0
 40
8.1442057291666661
  1
CHECK
 41
0.7
 11
804.49999999999989
 21
95.882339062500137
 31
0.0
 73
     3
1001
ACADANNOTATIVE
1000
AnnotativeData
1002
{
1070
     1
1070
     0
1002
}
  0
LINE
  5
3E
  8
HIBINO-BASE
  6
CONTINUOUS
 62
     7
 10
571.87499999999989
 20
56.25
 30
0.0
 11
590.625
 21
75.000000000000099
 31
0.0
  0
TEXT
  5
3F
  8
HIBINO-BASE
 62
     7
 10
568.74999999999989
 20
69.455283333333384
 30
0.0
 40
8.1442057291666661
  1
1
 41
0.7
 11
568.74999999999989
 21
77.599489062500069
 31
0.0
 73
     3
1001
ACADANNOTATIVE
1000
AnnotativeData
1002
{
1070
     1
1070
     0
1002
}
  0
LINE
  5
40
  8
HIBINO-BASE
  6
CONTINUOUS
 62
     7
 10
562.49999999999989
 20
50.0
 30
0.0
 11
562.49999999999989
 21
100.0000000000001
 31
0.0
  0
LINE
  5
41
  8
HIBINO-BASE
  6
CONTINUOUS
 62
     7
 10
612.49999999999989
 20
50.0
 30
0.0
 11
612.49999999999989
 21
100.0000000000001
 31
0.0
  0
LINE
  5
42
  8
HIBINO-BASE
  6
CONTINUOUS
 62
     7
 10
737.5
 20
100.0000000000001
 30
0.0
 11
737.5
 21
50.0
 31
0.0
  0
LINE
  5
43
  8
HIBINO-BASE
  6
CONTINUOUS
 62
     7
 10
862.5
 20
100.0000000000001
 30
0.0
 11
862.5
 21
50.0
 31
0.0
  0
LINE
  5
44
  8
HIBINO-BASE
  6
CONTINUOUS
 62
     7
 10
800.0
 20
50.0
 30
0.0
 11
800.0
 21
100.0000000000001
 31
0.0
  0
TEXT
  5
45
  8
HIBINO-BASE
 62
     7
 10
616.78269999999986
 20
64.318233333333382
 30
0.0
 40
8.1442057291666661
  1
'10.01.
 41
0.7
 11
616.78269999999986
 21
72.462439062500053
 31
0.0
 73
     3
1001
ACADANNOTATIVE
1000
AnnotativeData
1002
{
1070
     1
1070
     0
1002
}
  0
TEXT
  5
46
  8
HIBINO-BASE
 62
     7
 10
587.5
 20
60.080283333333398
 30
0.0
 40
8.1442057291666661
  1
5
 41
0.7
 11
587.5
 21
68.224489062500069
 31
0.0
 73
     3
1001
ACADANNOTATIVE
1000
AnnotativeData
1002
{
1070
     1
1070
     0
1002
}
  0
TEXT
  5
47
  8
HIBINO-BASE
 62
     7
 10
746.98306333084508
 20
64.53534591951923
 30
0.0
 40
8.1442057291666661
  1
T.Ootake
 41
0.7
 11
746.98306333084508
 21
72.679551648685901
 31
0.0
 73
     3
1001
ACADANNOTATIVE
1000
AnnotativeData
1002
{
1070
     1
1070
     0
1002
}
  0
TEXT
  5
48
  8
HIBINO-BASE
 62
     7
 10
519.41666666666674
 20
59.880000000000031
 30
0.0
 40
16.288411458333329
  1
A4
 41
0.7
 11
519.41666666666674
 21
76.168411458333352
 31
0.0
 73
     3
1001
ACADANNOTATIVE
1000
AnnotativeData
1002
{
1070
     1
1070
     0
1002
}
  0
TEXT
  5
49
  8
HIBINO-BASE
 62
     7
 10
504.79166666666652
 20
86.902725000000103
 30
0.0
 40
8.1442057291666661
  1
PAPER SIZE
 41
0.7
 11
504.79166666666652
 21
95.046930729166775
 31
0.0
 73
     3
1001
ACADANNOTATIVE
1000
AnnotativeData
1002
{
1070
     1
1070
     0
1002
}
  0
LINE
  5
4A
  8
SPEC
  6
CONTINUOUS
 62
     7
 10
87.5
 20
1300.0
 30
0.0
 11
825.0
 21
1300.0
 31
0.0
  0
LINE
  5
4B
  8
SPEC
  6
CONTINUOUS
 62
     7
 10
87.5
 20
1281.25
 30
0.0
 11
825.0
 21
1281.25
 31
0.0
  0
LINE
  5
4C
  8
SPEC
  6
CONTINUOUS
 62
     7
 10
87.5
 20
1206.25
 30
0.0
 11
825.0
 21
1206.25
 31
0.0
  0
LINE
  5
4D
  8
SPEC
  6
CONTINUOUS
 62
     7
 10
87.5
 20
1225.0
 30
0.0
 11
825.0
 21
1225.0
 31
0.0
  0
LINE
  5
4E
  8
SPEC
  6
CONTINUOUS
 62
     7
 10
87.5
 20
1243.75
 30
0.0
 11
825.0
 21
1243.75
 31
0.0
  0
LINE
  5
4F
  8
SPEC
  6
CONTINUOUS
 62
     7
 10
87.5
 20
1187.5
 30
0.0
 11
825.0
 21
1187.5
 31
0.0
  0
LINE
  5
50
  8
SPEC
  6
CONTINUOUS
 62
     7
 10
87.5
 20
1150.0
 30
0.0
 11
825.0
 21
1150.0
 31
0.0
  0
LINE
  5
51
  8
SPEC
  6
CONTINUOUS
 62
     7
 10
87.5
 20
1168.75
 30
0.0
 11
825.0
 21
1168.75
 31
0.0
  0
LINE
  5
52
  8
SPEC
  6
CONTINUOUS
 62
     7
 10
87.5
 20
1131.25
 30
0.0
 11
825.0
 21
1131.25
 31
0.0
  0
LINE
  5
53
  8
SPEC
  6
CONTINUOUS
 62
     7
 10
87.5
 20
1112.5
 30
0.0
 11
825.0
 21
1112.5
 31
0.0
  0
LINE
  5
54
  8
SPEC
  6
CONTINUOUS
 62
     7
 10
87.5
 20
1262.5
 30
0.0
 11
825.0
 21
1262.5
 31
0.0
  0
TEXT
  5
55
  8
SPEC
 62
     7
 10
329.48990674197381
 20
1285.637387114275
 30
0.0
 40
9.5015562499999984
  1
HDMI 切替器
 41
0.7
 11
329.48990674197381
 21
1295.1389433642751
 31
0.0
 73
     3
1001
ACADANNOTATIVE
1000
AnnotativeData
1002
{
1070
     1
1070
     0
1002
}
  0
TEXT
  5
56
  8
SPEC
 62
     7
 10
93.75
 20
1306.9663499999999
 30
0.0
 40
12.21630859375
  1
仕様
 41
0.7
 11
93.75
 21
1319.1826585937499
 31
0.0
 73
     3
1001
ACADANNOTATIVE
1000
AnnotativeData
1002
{
1070
     1
1070
     0
1002
}
  0
TEXT
  5
57
  8
SPEC
 62
     7
 10
91.643774549638465
 20
1286.063245934721
 30
0.0
 40
9.5015562499999984
  1
形式
 41
0.7
 11
91.643774549638465
 21
1295.564802184721
 31
0.0
 73
     3
1001
ACADANNOTATIVE
1000
AnnotativeData
1002
{
1070
     1
1070
     0
1002
}
  0
LINE
  5
58
  8
SPEC
  6
CONTINUOUS
 62
     7
 10
325.0
 20
1300.0
 30
0.0
 11
325.0
 21
1093.75
 31
0.0
  0
LINE
  5
59
  8
SPEC
  6
CONTINUOUS
 62
     7
 10
87.5
 20
1093.75
 30
0.0
 11
825.0
 21
1093.75
 31
0.0
  0
TEXT
  5
5A
  8
SPEC
 62
     7
 10
91.473529153280893
 20
1117.8314693199909
 30
0.0
 40
9.5015562499999984
  1
寸法
 41
0.7
 11
91.473529153280893
 21
1127.3330255699909
 31
0.0
 73
     3
1001
ACADANNOTATIVE
1000
AnnotativeData
1002
{
1070
     1
1070
     0
1002
}
  0
LINE
  5
5B
  8
SPEC
  6
CONTINUOUS
 62
     7
 10
825.0
 20
1300.0
 30
0.0
 11
825.0
 21
1093.75
 31
0.0
  0
TEXT
  5
5C
  8
SPEC
 62
     7
 10
91.648571274077241
 20
1098.7898732425469
 30
0.0
 40
9.5015562499999984
  1
重量
 41
0.7
 11
91.648571274077241
 21
1108.291429492547
 31
0.0
 73
     3
1001
ACADANNOTATIVE
1000
AnnotativeData
1002
{
1070
     1
1070
     0
1002
}
  0
TEXT
  5
5D
  8
SPEC
 62
     7
 10
329.52390743316948
 20
1154.6592790776019
 30
0.0
 40
9.5015562499999984
  1
5V DC
 41
0.7
 11
329.52390743316948
 21
1164.1608353276019
 31
0.0
 73
     3
1001
ACADANNOTATIVE
1000
AnnotativeData
1002
{
1070
     1
1070
     0
1002
}
  0
LINE
  5
5E
  8
SPEC
  6
CONTINUOUS
 62
     7
 10
87.5
 20
1300.0
 30
0.0
 11
87.5
 21
1093.75
 31
0.0
  0
TEXT
  5
5F
  8
SPEC
 62
     7
 10
91.556154373249527
 20
1154.8699564979649
 30
0.0
 40
9.5015562499999984
  1
電源
 41
0.7
 11
91.556154373249527
 21
1164.371512747965
 31
0.0
 73
     3
1001
ACADANNOTATIVE
1000
AnnotativeData
1002
{
1070
     1
1070
     0
1002
}
  0
TEXT
  5
60
  8
SPEC
 62
     7
 10
89.763795692201583
 20
1267.1981538361399
 30
0.0
 40
9.5015562499999984
  1
ビデオアンプ帯域
 41
0.7
 11
89.763795692201583
 21
1276.6997100861399
 31
0.0
 73
     3
1001
ACADANNOTATIVE
1000
AnnotativeData
1002
{
1070
     1
1070
     0
1002
}
  0
TEXT
  5
61
  8
SPEC
 62
     7
 10
329.4895502919872
 20
1267.0457891531209
 30
0.0
 40
9.5015562499999984
  1
225MHz
 41
0.7
 11
329.4895502919872
 21
1276.547345403121
 31
0.0
 73
     3
1001
ACADANNOTATIVE
1000
AnnotativeData
1002
{
1070
     1
1070
     0
1002
}
  0
TEXT
  5
62
  8
SPEC
 62
     7
 10
92.048951285205632
 20
1192.379035548769
 30
0.0
 40
9.5015733506944464
  1
HDMI入出力端子
 41
0.7
 11
92.048951285205632
 21
1201.8806088994641
 31
0.0
 73
     3
1001
ACADANNOTATIVE
1000
AnnotativeData
1002
{
1070
     1
1070
     0
1002
}
  0
TEXT
  5
63
  8
SPEC
 62
     7
 10
90.628117911539107
 20
1173.784019785161
 30
0.0
 40
9.5015733506944464
  1
コントロール端子
 41
0.7
 11
90.628117911539107
 21
1183.2855931358549
 31
0.0
 73
     3
1001
ACADANNOTATIVE
1000
AnnotativeData
1002
{
1070
     1
1070
     0
1002
}
  0
TEXT
  5
64
  8
SPEC
 62
     7
 10
91.775924864593605
 20
1248.534620351659
 30
0.0
 40
9.5015733506944464
  1
入力ビデオ信号
 41
0.7
 11
91.775924864593605
 21
1258.0361937023531
 31
0.0
 73
     3
1001
ACADANNOTATIVE
1000
AnnotativeData
1002
{
1070
     1
1070
     0
1002
}
  0
TEXT
  5
65
  8
SPEC
 62
     7
 10
329.4319983857215
 20
1173.058156010909
 30
0.0
 40
9.5015733506944464
  1
RS-232(メス)、ミニステレオ
 41
0.7
 11
329.4319983857215
 21
1182.559729361604
 31
0.0
 73
     3
1001
ACADANNOTATIVE
1000
AnnotativeData
1002
{
1070
     1
1070
     0
1002
}
  0
TEXT
  5
66
  8
SPEC
 62
     7
 10
328.84081780077378
 20
1248.638746002367
 30
0.0
 40
9.5015733506944464
  1
1.2Vp-p
 41
0.7
 11
328.84081780077378
 21
1258.1403193530621
 31
0.0
 73
     3
1001
ACADANNOTATIVE
1000
AnnotativeData
1002
{
1070
     1
1070
     0
1002
}
  0
TEXT
  5
67
  8
SPEC
 62
     7
 10
329.49730163855321
 20
1192.263595204998
 30
0.0
 40
9.5015733506944464
  1
TypeA、19pinメス
 41
0.7
 11
329.49730163855321
 21
1201.765168555693
 31
0.0
 73
     3
1001
ACADANNOTATIVE
1000
AnnotativeData
1002
{
1070
     1
1070
     0
1002
}
  0
TEXT
  5
68
  8
SPEC
 62
     7
 10
91.814280611512075
 20
1229.915193162984
 30
0.0
 40
9.5015733506944464
  1
入力DDC信号
 41
0.7
 11
91.814280611512075
 21
1239.4167665136781
 31
0.0
 73
     3
1001
ACADANNOTATIVE
1000
AnnotativeData
1002
{
1070
     1
1070
     0
1002
}
  0
TEXT
  5
69
  8
SPEC
 62
     7
 10
329.51829124099442
 20
1229.6898411256579
 30
0.0
 40
9.5015733506944464
  1
5Vp-p(TTL)
 41
0.7
 11
329.51829124099442
 21
1239.1914144763521
 31
0.0
 73
     3
1001
ACADANNOTATIVE
1000
AnnotativeData
1002
{
1070
     1
1070
     0
1002
}
  0
TEXT
  5
6A
  8
SPEC
 62
     7
 10
91.733169292584421
 20
1136.140680028253
 30
0.0
 40
9.5015562499999984
  1
消費電力
 41
0.7
 11
91.733169292584421
 21
1145.642236278253
 31
0.0
 73
     3
1001
ACADANNOTATIVE
1000
AnnotativeData
1002
{
1070
     1
1070
     0
1002
}
  0
TEXT
  5
6B
  8
SPEC
 62
     7
 10
329.52370849074663
 20
1136.0918310179991
 30
0.0
 40
9.5015562499999984
  1
30W(最大)
 41
0.7
 11
329.52370849074663
 21
1145.5933872679991
 31
0.0
 73
     3
1001
ACADANNOTATIVE
1000
AnnotativeData
1002
{
1070
     1
1070
     0
1002
}
  0
TEXT
  5
6C
  8
SPEC
 62
     7
 10
329.63359079620182
 20
1117.2336906228429
 30
0.0
 40
9.5015733506944464
  1
482(W)\U+00D744(H)\U+00D7175(D)mm(突起部含まず)
 41
0.7
 11
329.63359079620182
 21
1126.735263973537
 31
0.0
 73
     3
1001
ACADANNOTATIVE
1000
AnnotativeData
1002
{
1070
     1
1070
     0
1002
}
  0
TEXT
  5
6D
  8
SPEC
 62
     7
 10
329.30678153183072
 20
1099.4039124689491
 30
0.0
 40
9.5015733506944464
  1
約1.2kg
 41
0.7
 11
329.30678153183072
 21
1108.905485819643
 31
0.0
 73
     3
1001
ACADANNOTATIVE
1000
AnnotativeData
1002
{
1070
     1
1070
     0
1002
}
  0
TEXT
  5
6E
  8
SPEC
 62
     7
 10
92.011165367716259
 20
1211.165193162984
 30
0.0
 40
9.5015733506944464
  1
最大対応解像度
 41
0.7
 11
92.011165367716259
 21
1220.6667665136781
 31
0.0
 73
     3
1001
ACADANNOTATIVE
1000
AnnotativeData
1002
{
1070
     1
1070
     0
1002
}
  0
TEXT
  5
6F
  8
SPEC
 62
     7
 10
328.77429017777757
 20
1210.741257576113
 30
0.0
 40
9.5015733506944464
  1
1080p/1920\U+00D71200
 41
0.7
 11
328.77429017777757
 21
1220.242830926808
 31
0.0
 73
     3
1001
ACADANNOTATIVE
1000
AnnotativeData
1002
{
1070
     1
1070
     0
1002
}
  0
TEXT
  5
70
  8
DIMNSIONS
 62
     7
 10
400.0
 20
111.34744999999999
 30
0.0
 40
12.21630859375
  1
(単位：mm)
 41
0.7
 11
400.0
 21
123.5637585937499
 31
0.0
 73
     3
1001
ACADANNOTATIVE
1000
AnnotativeData
1002
{
1070
     1
1070
     0
1002
}
  0
LINE
  5
71
  8
DIMNSIONS
  6
CONTINUOUS
 62
     7
 10
173.5
 20
340.0
 30
0.0
 11
173.5
 21
302.5
 31
0.0
  0
LINE
  5
72
  8
DIMNSIONS
  6
CONTINUOUS
 62
     7
 10
608.49999999999989
 20
340.0
 30
0.0
 11
608.49999999999989
 21
302.5
 31
0.0
  0
LINE
  5
73
  8
DIMNSIONS
  6
CONTINUOUS
 62
     7
 10
173.5
 20
312.5
 30
0.0
 11
608.49999999999989
 21
312.5
 31
0.0
  0
LINE
  5
74
  8
DIMNSIONS
  6
CONTINUOUS
 62
     7
 10
173.5
 20
312.5
 30
0.0
 11
186.00311279296869
 21
315.8501989757512
 31
0.0
  0
LINE
  5
75
  8
DIMNSIONS
  6
CONTINUOUS
 62
     7
 10
173.5
 20
312.5
 30
0.0
 11
186.00311279296869
 21
309.1498010242488
 31
0.0
  0
LINE
  5
76
  8
DIMNSIONS
  6
CONTINUOUS
 62
     7
 10
608.49999999999989
 20
312.5
 30
0.0
 11
595.99688720703125
 21
309.1498010242488
 31
0.0
  0
LINE
  5
77
  8
DIMNSIONS
  6
CONTINUOUS
 62
     7
 10
608.49999999999989
 20
312.5
 30
0.0
 11
595.99688720703125
 21
315.8501989757512
 31
0.0
  0
TEXT
  5
78
  8
DIMNSIONS
 62
     7
 10
377.77083333333331
 20
317.46944444444449
 30
0.0
 40
13.57367621527778
  1
435
 41
0.7
 11
377.77083333333331
 21
331.04312065972232
 31
0.0
 73
     3
1001
ACADANNOTATIVE
1000
AnnotativeData
1002
{
1070
     1
1070
     0
1002
}
  0
LINE
  5
79
  8
DIMNSIONS
  6
CONTINUOUS
 62
     7
 10
150.0
 20
340.0
 30
0.0
 11
150.0
 21
265.0
 31
0.0
  0
LINE
  5
7A
  8
DIMNSIONS
  6
CONTINUOUS
 62
     7
 10
632.0
 20
340.0
 30
0.0
 11
632.0
 21
265.0
 31
0.0
  0
LINE
  5
7B
  8
DIMNSIONS
  6
CONTINUOUS
 62
     7
 10
150.0
 20
275.0
 30
0.0
 11
632.0
 21
275.0
 31
0.0
  0
LINE
  5
7C
  8
DIMNSIONS
  6
CONTINUOUS
 62
     7
 10
150.0
 20
275.0
 30
0.0
 11
162.50311279296869
 21
278.3501989757512
 31
0.0
  0
LINE
  5
7D
  8
DIMNSIONS
  6
CONTINUOUS
 62
     7
 10
150.0
 20
275.0
 30
0.0
 11
162.50311279296869
 21
271.6498010242488
 31
0.0
  0
LINE
  5
7E
  8
DIMNSIONS
  6
CONTINUOUS
 62
     7
 10
632.0
 20
275.0
 30
0.0
 11
619.49688720703125
 21
271.6498010242488
 31
0.0
  0
LINE
  5
7F
  8
DIMNSIONS
  6
CONTINUOUS
 62
     7
 10
632.0
 20
275.0
 30
0.0
 11
619.49688720703125
 21
278.3501989757512
 31
0.0
  0
TEXT
  5
80
  8
DIMNSIONS
 62
     7
 10
377.77083333333331
 20
279.96944444444449
 30
0.0
 40
13.57367621527778
  1
482
 41
0.7
 11
377.77083333333331
 21
293.54312065972232
 31
0.0
 73
     3
1001
ACADANNOTATIVE
1000
AnnotativeData
1002
{
1070
     1
1070
     0
1002
}
  0
LINE
  5
81
  8
DIMNSIONS
  6
CONTINUOUS
 62
     7
 10
140.0
 20
350.0
 30
0.0
 11
102.5
 21
350.0
 31
0.0
  0
LINE
  5
82
  8
DIMNSIONS
  6
CONTINUOUS
 62
     7
 10
140.0
 20
394.0
 30
0.0
 11
102.5
 21
394.0
 31
0.0
  0
LINE
  5
83
  8
DIMNSIONS
  6
CONTINUOUS
 62
     7
 10
112.5
 20
350.0
 30
0.0
 11
112.5
 21
394.0
 31
0.0
  0
LINE
  5
84
  8
DIMNSIONS
  6
CONTINUOUS
 62
     7
 10
112.5
 20
350.0
 30
0.0
 11
109.1498010242488
 21
362.50311279296881
 31
0.0
  0
LINE
  5
85
  8
DIMNSIONS
  6
CONTINUOUS
 62
     7
 10
112.5
 20
350.0
 30
0.0
 11
115.8501989757512
 21
362.50311279296881
 31
0.0
  0
LINE
  5
86
  8
DIMNSIONS
  6
CONTINUOUS
 62
     7
 10
112.5
 20
394.0
 30
0.0
 11
115.8501989757512
 21
381.49688720703131
 31
0.0
  0
LINE
  5
87
  8
DIMNSIONS
  6
CONTINUOUS
 62
     7
 10
112.5
 20
394.0
 30
0.0
 11
109.1498010242488
 21
381.49688720703131
 31
0.0
  0
TEXT
  5
88
  8
DIMNSIONS
 62
     7
 10
107.53055555555549
 20
363.18055555555549
 30
0.0
 40
13.57367621527778
  1
44
 50
90.0
 41
0.7
 11
93.956879340277709
 21
363.18055555555549
 31
0.0
 73
     3
1001
ACADANNOTATIVE
1000
AnnotativeData
1002
{
1070
     1
1070
     0
1002
}
  0
LINE
  5
89
  8
DIMNSIONS
  6
CONTINUOUS
 62
     7
 10
140.0
 20
462.5
 30
0.0
 11
102.5
 21
462.5
 31
0.0
  0
LINE
  5
8A
  8
DIMNSIONS
  6
CONTINUOUS
 62
     7
 10
163.5
 20
637.5
 30
0.0
 11
102.5
 21
637.5
 31
0.0
  0
LINE
  5
8B
  8
DIMNSIONS
  6
CONTINUOUS
 62
     7
 10
112.5
 20
462.5
 30
0.0
 11
112.5
 21
637.5
 31
0.0
  0
LINE
  5
8C
  8
DIMNSIONS
  6
CONTINUOUS
 62
     7
 10
112.5
 20
462.5
 30
0.0
 11
109.1498010242488
 21
475.00311279296881
 31
0.0
  0
LINE
  5
8D
  8
DIMNSIONS
  6
CONTINUOUS
 62
     7
 10
112.5
 20
462.5
 30
0.0
 11
115.8501989757512
 21
475.00311279296881
 31
0.0
  0
LINE
  5
8E
  8
DIMNSIONS
  6
CONTINUOUS
 62
     7
 10
112.5
 20
637.5
 30
0.0
 11
115.8501989757512
 21
624.99688720703125
 31
0.0
  0
LINE
  5
8F
  8
DIMNSIONS
  6
CONTINUOUS
 62
     7
 10
112.5
 20
637.5
 30
0.0
 11
109.1498010242488
 21
624.99688720703125
 31
0.0
  0
TEXT
  5
90
  8
DIMNSIONS
 62
     7
 10
107.53055555555549
 20
536.77083333333314
 30
0.0
 40
13.57367621527778
  1
175
 50
90.0
 41
0.7
 11
93.956879340277709
 21
536.77083333333314
 31
0.0
 73
     3
1001
ACADANNOTATIVE
1000
AnnotativeData
1002
{
1070
     1
1070
     0
1002
}
  0
LINE
  5
91
  8
DIMNSIONS
  6
CONTINUOUS
 62
     7
 10
140.0
 20
462.5
 30
0.0
 11
127.5
 21
462.5
 31
0.0
  0
LINE
  5
92
  8
DIMNSIONS
  6
CONTINUOUS
 62
     7
 10
140.0
 20
465.10000000000002
 30
0.0
 11
127.5
 21
465.10000000000002
 31
0.0
  0
LINE
  5
93
  8
DIMNSIONS
  6
CONTINUOUS
 62
     7
 10
137.5
 20
465.10000000000002
 30
0.0
 11
137.5
 21
462.5
 31
0.0
  0
LINE
  5
94
  8
DIMNSIONS
  6
CONTINUOUS
 62
     7
 10
137.5
 20
462.5
 30
0.0
 11
137.5
 21
437.5
 31
0.0
  0
LINE
  5
95
  8
DIMNSIONS
  6
CONTINUOUS
 62
     7
 10
137.5
 20
462.5
 30
0.0
 11
140.8501989757512
 21
449.99688720703119
 31
0.0
  0
LINE
  5
96
  8
DIMNSIONS
  6
CONTINUOUS
 62
     7
 10
137.5
 20
462.5
 30
0.0
 11
134.1498010242488
 21
449.99688720703119
 31
0.0
  0
LINE
  5
97
  8
DIMNSIONS
  6
CONTINUOUS
 62
     7
 10
137.5
 20
465.10000000000002
 30
0.0
 11
137.5
 21
513.95833333333326
 31
0.0
  0
LINE
  5
98
  8
DIMNSIONS
  6
CONTINUOUS
 62
     7
 10
137.5
 20
465.10000000000002
 30
0.0
 11
134.1498010242488
 21
477.60311279296877
 31
0.0
  0
LINE
  5
99
  8
DIMNSIONS
  6
CONTINUOUS
 62
     7
 10
137.5
 20
465.10000000000002
 30
0.0
 11
140.8501989757512
 21
477.60311279296877
 31
0.0
  0
TEXT
  5
9A
  8
DIMNSIONS
 62
     7
 10
132.53055555555551
 20
487.5
 30
0.0
 40
13.57367621527778
  1
2.6
 50
90.0
 41
0.7
 11
118.95687934027769
 21
487.5
 31
0.0
 73
     3
1001
ACADANNOTATIVE
1000
AnnotativeData
1002
{
1070
     1
1070
     0
1002
}
  0
LINE
  5
9B
  8
DIMNSIONS
  6
CONTINUOUS
 62
     7
 10
163.5
 20
637.5
 30
0.0
 11
102.5
 21
637.5
 31
0.0
  0
LINE
  5
9C
  8
DIMNSIONS
  6
CONTINUOUS
 62
     7
 10
189.59999999999999
 20
643.5
 30
0.0
 11
102.5
 21
643.5
 31
0.0
  0
LINE
  5
9D
  8
DIMNSIONS
  6
CONTINUOUS
 62
     7
 10
112.5
 20
643.5
 30
0.0
 11
112.5
 21
637.5
 31
0.0
  0
LINE
  5
9E
  8
DIMNSIONS
  6
CONTINUOUS
 62
     7
 10
112.5
 20
637.5
 30
0.0
 11
112.5
 21
612.5
 31
0.0
  0
LINE
  5
9F
  8
DIMNSIONS
  6
CONTINUOUS
 62
     7
 10
112.5
 20
637.5
 30
0.0
 11
115.8501989757512
 21
624.99688720703125
 31
0.0
  0
LINE
  5
A0
  8
DIMNSIONS
  6
CONTINUOUS
 62
     7
 10
112.5
 20
637.5
 30
0.0
 11
109.1498010242488
 21
624.99688720703125
 31
0.0
  0
LINE
  5
A1
  8
DIMNSIONS
  6
CONTINUOUS
 62
     7
 10
112.5
 20
643.5
 30
0.0
 11
112.5
 21
670.31944444444434
 31
0.0
  0
LINE
  5
A2
  8
DIMNSIONS
  6
CONTINUOUS
 62
     7
 10
112.5
 20
643.5
 30
0.0
 11
109.1498010242488
 21
656.00311279296875
 31
0.0
  0
LINE
  5
A3
  8
DIMNSIONS
  6
CONTINUOUS
 62
     7
 10
112.5
 20
643.5
 30
0.0
 11
115.8501989757512
 21
656.00311279296875
 31
0.0
  0
TEXT
  5
A4
  8
DIMNSIONS
 62
     7
 10
107.53055555555549
 20
661.5
 30
0.0
 40
13.57367621527778
  1
6
 50
90.0
 41
0.7
 11
93.956879340277709
 21
661.5
 31
0.0
 73
     3
1001
ACADANNOTATIVE
1000
AnnotativeData
1002
{
1070
     1
1070
     0
1002
}
  0
LINE
  5
A5
  8
DIMNSIONS
  6
CONTINUOUS
 62
     7
 10
173.0
 20
346.0
 30
0.0
 11
102.5
 21
346.0
 31
0.0
  0
LINE
  5
A6
  8
DIMNSIONS
  6
CONTINUOUS
 62
     7
 10
140.0
 20
350.0
 30
0.0
 11
102.5
 21
350.0
 31
0.0
  0
LINE
  5
A7
  8
DIMNSIONS
  6
CONTINUOUS
 62
     7
 10
112.5
 20
350.0
 30
0.0
 11
112.5
 21
346.0
 31
0.0
  0
LINE
  5
A8
  8
DIMNSIONS
  6
CONTINUOUS
 62
     7
 10
112.5
 20
346.0
 30
0.0
 11
112.5
 21
318.1805555555556
 31
0.0
  0
LINE
  5
A9
  8
DIMNSIONS
  6
CONTINUOUS
 62
     7
 10
112.5
 20
346.0
 30
0.0
 11
115.8501989757512
 21
333.49688720703131
 31
0.0
  0
LINE
  5
AA
  8
DIMNSIONS
  6
CONTINUOUS
 62
     7
 10
112.5
 20
346.0
 30
0.0
 11
109.1498010242488
 21
333.49688720703131
 31
0.0
  0
LINE
  5
AB
  8
DIMNSIONS
  6
CONTINUOUS
 62
     7
 10
112.5
 20
350.0
 30
0.0
 11
112.5
 21
375.0
 31
0.0
  0
LINE
  5
AC
  8
DIMNSIONS
  6
CONTINUOUS
 62
     7
 10
112.5
 20
350.0
 30
0.0
 11
109.1498010242488
 21
362.50311279296881
 31
0.0
  0
LINE
  5
AD
  8
DIMNSIONS
  6
CONTINUOUS
 62
     7
 10
112.5
 20
350.0
 30
0.0
 11
115.8501989757512
 21
362.50311279296881
 31
0.0
  0
TEXT
  5
AE
  8
DIMNSIONS
 62
     7
 10
107.53055555555549
 20
318.1805555555556
 30
0.0
 40
13.57367621527778
  1
4
 50
90.0
 41
0.7
 11
93.956879340277709
 21
318.1805555555556
 31
0.0
 73
     3
1001
ACADANNOTATIVE
1000
AnnotativeData
1002
{
1070
     1
1070
     0
1002
}
  0
TEXT
  5
AF
  8
DATA
 62
     7
 10
750.0
 20
106.0627619472923
 30
0.0
 40
12.21630859375
  1
EXT-HDMI1.3-444
 41
0.7
 11
750.0
 21
118.2790705410423
 31
0.0
 73
     3
1001
ACADANNOTATIVE
1000
AnnotativeData
1002
{
1070
     1
1070
     0
1002
}
  0
TEXT
  5
B0
  8
DATA
 62
     7
 10
737.5
 20
126.7321898582256
 30
0.0
 40
8.1442185546874981
  1
HDMI 切替器
 41
0.7
 11
737.5
 21
134.87640841291309
 31
0.0
 73
     3
1001
ACADANNOTATIVE
1000
AnnotativeData
1002
{
1070
     1
1070
     0
1002
}
  0
TEXT
  5
B1
  8
DATA
 62
     7
 10
100.0
 20
71.190000000000111
 30
0.0
 40
8.1442057291666661
  1
仕様および外観は予告なく変更されることがありますので、ご了承ください。
 41
0.7
 11
100.0
 21
79.334205729166783
 31
0.0
 73
     3
1001
ACADANNOTATIVE
1000
AnnotativeData
1002
{
1070
     1
1070
     0
1002
}
  0
TEXT
  5
B2
  8
DATA
 62
     7
 10
748.0
 20
144.68030417747681
 30
0.0
 40
12.21630859375
  1
Gefen
 41
0.7
 11
748.0
 21
156.89661277122681
 31
0.0
 73
     3
1001
ACADANNOTATIVE
1000
AnnotativeData
1002
{
1070
     1
1070
     0
1002
}
  0
LINE
  5
B3
  8
DATA
  6
CONTINUOUS
 62
     7
 10
173.5
 20
350.0
 30
0.0
 11
173.5
 21
394.0
 31
0.0
  0
LINE
  5
B4
  8
DATA
  6
CONTINUOUS
 62
     7
 10
608.49999999999989
 20
350.0
 30
0.0
 11
173.5
 21
350.0
 31
0.0
  0
LINE
  5
B5
  8
DATA
  6
CONTINUOUS
 62
     7
 10
608.49999999999989
 20
394.0
 30
0.0
 11
608.49999999999989
 21
350.0
 31
0.0
  0
LINE
  5
B6
  8
DATA
  6
CONTINUOUS
 62
     7
 10
173.5
 20
394.0
 30
0.0
 11
608.49999999999989
 21
394.0
 31
0.0
  0
LINE
  5
B7
  8
DATA
  6
CONTINUOUS
 62
     7
 10
150.0
 20
350.0
 30
0.0
 11
150.0
 21
394.0
 31
0.0
  0
LINE
  5
B8
  8
DATA
  6
CONTINUOUS
 62
     7
 10
632.0
 20
394.0
 30
0.0
 11
632.0
 21
350.0
 31
0.0
  0
LINE
  5
B9
  8
DATA
  6
CONTINUOUS
 62
     7
 10
150.0
 20
394.0
 30
0.0
 11
173.5
 21
394.0
 31
0.0
  0
LINE
  5
BA
  8
DATA
  6
CONTINUOUS
 62
     7
 10
632.0
 20
394.0
 30
0.0
 11
608.49999999999989
 21
394.0
 31
0.0
  0
LINE
  5
BB
  8
DATA
  6
CONTINUOUS
 62
     7
 10
173.5
 20
350.0
 30
0.0
 11
150.0
 21
350.0
 31
0.0
  0
LINE
  5
BC
  8
DATA
  6
CONTINUOUS
 62
     7
 10
608.49999999999989
 20
350.0
 30
0.0
 11
632.0
 21
350.0
 31
0.0
  0
ARC
  5
BD
  8
DATA
  6
CONTINUOUS
 62
     7
 10
156.5
 20
387.89999999999998
 30
0.0
 40
3.5
 50
90.000000000000938
 51
269.99999999999909
  0
ARC
  5
BE
  8
DATA
  6
CONTINUOUS
 62
     7
 10
160.49999999999989
 20
387.89999999999998
 30
0.0
 40
3.5
 50
270.00000000000091
 51
89.999999999999091
  0
LINE
  5
BF
  8
DATA
  6
CONTINUOUS
 62
     7
 10
156.5
 20
391.39999999999998
 30
0.0
 11
160.49999999999989
 21
391.39999999999998
 31
0.0
  0
LINE
  5
C0
  8
DATA
  6
CONTINUOUS
 62
     7
 10
156.5
 20
384.39999999999998
 30
0.0
 11
160.49999999999989
 21
384.39999999999998
 31
0.0
  0
ARC
  5
C1
  8
DATA
  6
CONTINUOUS
 62
     7
 10
156.5
 20
356.10000000000002
 30
0.0
 40
3.5
 50
90.000000000000938
 51
269.99999999999909
  0
ARC
  5
C2
  8
DATA
  6
CONTINUOUS
 62
     7
 10
160.49999999999989
 20
356.10000000000002
 30
0.0
 40
3.5
 50
270.00000000000091
 51
89.999999999999091
  0
LINE
  5
C3
  8
DATA
  6
CONTINUOUS
 62
     7
 10
156.5
 20
352.60000000000002
 30
0.0
 11
160.49999999999989
 21
352.60000000000002
 31
0.0
  0
LINE
  5
C4
  8
DATA
  6
CONTINUOUS
 62
     7
 10
156.5
 20
359.60000000000002
 30
0.0
 11
160.49999999999989
 21
359.60000000000002
 31
0.0
  0
ARC
  5
C5
  8
DATA
  6
CONTINUOUS
 62
     7
 10
625.49999999999989
 20
387.89999999999998
 30
0.0
 40
3.5
 50
270.00000000000091
 51
89.999999999999091
  0
ARC
  5
C6
  8
DATA
  6
CONTINUOUS
 62
     7
 10
621.49999999999989
 20
387.89999999999998
 30
0.0
 40
3.5
 50
90.000000000000938
 51
269.99999999999909
  0
LINE
  5
C7
  8
DATA
  6
CONTINUOUS
 62
     7
 10
625.49999999999989
 20
391.39999999999998
 30
0.0
 11
621.49999999999989
 21
391.39999999999998
 31
0.0
  0
LINE
  5
C8
  8
DATA
  6
CONTINUOUS
 62
     7
 10
625.49999999999989
 20
384.39999999999998
 30
0.0
 11
621.49999999999989
 21
384.39999999999998
 31
0.0
  0
ARC
  5
C9
  8
DATA
  6
CONTINUOUS
 62
     7
 10
625.49999999999989
 20
356.10000000000002
 30
0.0
 40
3.5
 50
270.00000000000091
 51
89.999999999999091
  0
ARC
  5
CA
  8
DATA
  6
CONTINUOUS
 62
     7
 10
621.49999999999989
 20
356.10000000000002
 30
0.0
 40
3.5
 50
90.000000000000938
 51
269.99999999999909
  0
LINE
  5
CB
  8
DATA
  6
CONTINUOUS
 62
     7
 10
625.49999999999989
 20
352.60000000000002
 30
0.0
 11
621.49999999999989
 21
352.60000000000002
 31
0.0
  0
LINE
  5
CC
  8
DATA
  6
CONTINUOUS
 62
     7
 10
625.49999999999989
 20
359.60000000000002
 30
0.0
 11
621.49999999999989
 21
359.60000000000002
 31
0.0
  0
LINE
  5
CD
  8
DATA
  6
CONTINUOUS
 62
     7
 10
150.0
 20
462.5
 30
0.0
 11
171.5
 21
462.5
 31
0.0
  0
LINE
  5
CE
  8
DATA
  6
CONTINUOUS
 62
     7
 10
173.5
 20
637.5
 30
0.0
 11
608.49999999999989
 21
637.5
 31
0.0
  0
LINE
  5
CF
  8
DATA
  6
CONTINUOUS
 62
     7
 10
150.0
 20
462.5
 30
0.0
 11
150.0
 21
465.10000000000002
 31
0.0
  0
LINE
  5
D0
  8
DATA
  6
CONTINUOUS
 62
     7
 10
173.5
 20
462.5
 30
0.0
 11
173.5
 21
637.5
 31
0.0
  0
LINE
  5
D1
  8
DATA
  6
CONTINUOUS
 62
     7
 10
608.49999999999989
 20
462.5
 30
0.0
 11
608.49999999999989
 21
637.5
 31
0.0
  0
LINE
  5
D2
  8
DATA
  6
CONTINUOUS
 62
     7
 10
632.0
 20
462.5
 30
0.0
 11
632.0
 21
465.10000000000002
 31
0.0
  0
LINE
  5
D3
  8
DATA
  6
CONTINUOUS
 62
     7
 10
150.0
 20
465.10000000000002
 30
0.0
 11
168.89999999999989
 21
465.10000000000002
 31
0.0
  0
LINE
  5
D4
  8
DATA
  6
CONTINUOUS
 62
     7
 10
613.10000000000002
 20
465.10000000000002
 30
0.0
 11
632.0
 21
465.10000000000002
 31
0.0
  0
LINE
  5
D5
  8
DATA
  6
CONTINUOUS
 62
     7
 10
173.5
 20
470.39999999999992
 30
0.0
 11
608.49999999999989
 21
470.39999999999992
 31
0.0
  0
LINE
  5
D6
  8
DATA
  6
CONTINUOUS
 62
     7
 10
170.89999999999989
 20
467.10000000000002
 30
0.0
 11
170.89999999999989
 21
488.49999999999989
 31
0.0
  0
LINE
  5
D7
  8
DATA
  6
CONTINUOUS
 62
     7
 10
611.10000000000002
 20
467.10000000000002
 30
0.0
 11
611.10000000000002
 21
488.49999999999989
 31
0.0
  0
LINE
  5
D8
  8
DATA
  6
CONTINUOUS
 62
     7
 10
170.89999999999989
 20
488.49999999999989
 30
0.0
 11
173.5
 21
488.49999999999989
 31
0.0
  0
LINE
  5
D9
  8
DATA
  6
CONTINUOUS
 62
     7
 10
608.49999999999989
 20
488.49999999999989
 30
0.0
 11
611.10000000000002
 21
488.49999999999989
 31
0.0
  0
ARC
  5
DA
  8
DATA
  6
CONTINUOUS
 62
     7
 10
168.89999999999989
 20
467.10000000000002
 30
0.0
 40
2.0
 50
270.0
 51
0.0
  0
ARC
  5
DB
  8
DATA
  6
CONTINUOUS
 62
     7
 10
171.5
 20
464.5
 30
0.0
 40
2.0
 50
270.0
 51
0.0
  0
ARC
  5
DC
  8
DATA
  6
CONTINUOUS
 62
     7
 10
613.10000000000002
 20
467.10000000000002
 30
0.0
 40
2.0
 50
180.0
 51
270.0
  0
LINE
  5
DD
  8
DATA
  6
CONTINUOUS
 62
     7
 10
632.0
 20
462.5
 30
0.0
 11
610.5
 21
462.5
 31
0.0
  0
ARC
  5
DE
  8
DATA
  6
CONTINUOUS
 62
     7
 10
610.5
 20
464.5
 30
0.0
 40
2.0
 50
180.0
 51
270.0
  0
LINE
  5
DF
  8
DATA
  6
CONTINUOUS
 62
     7
 10
173.5
 20
462.5
 30
0.0
 11
608.49999999999989
 21
462.5
 31
0.0
  0
LINE
  5
E0
  8
DATA
  6
CONTINUOUS
 62
     7
 10
610.5
 20
462.5
 30
0.0
 11
612.5
 21
462.5
 31
0.0
  0
CIRCLE
  5
E1
  8
DATA
  6
CONTINUOUS
 62
     7
 10
524.5
 20
374.0
 30
0.0
 40
1.5
  0
CIRCLE
  5
E2
  8
DATA
  6
CONTINUOUS
 62
     7
 10
514.5
 20
374.0
 30
0.0
 40
1.5
  0
CIRCLE
  5
E3
  8
DATA
  6
CONTINUOUS
 62
     7
 10
504.49999999999989
 20
374.0
 30
0.0
 40
1.5
  0
CIRCLE
  5
E4
  8
DATA
  6
CONTINUOUS
 62
     7
 10
494.5
 20
374.0
 30
0.0
 40
1.5
  0
CIRCLE
  5
E5
  8
DATA
  6
CONTINUOUS
 62
     7
 10
454.49999999999989
 20
374.0
 30
0.0
 40
1.5
  0
CIRCLE
  5
E6
  8
DATA
  6
CONTINUOUS
 62
     7
 10
444.5
 20
374.0
 30
0.0
 40
1.5
  0
CIRCLE
  5
E7
  8
DATA
  6
CONTINUOUS
 62
     7
 10
434.49999999999989
 20
374.0
 30
0.0
 40
1.5
  0
CIRCLE
  5
E8
  8
DATA
  6
CONTINUOUS
 62
     7
 10
424.5
 20
374.0
 30
0.0
 40
1.5
  0
CIRCLE
  5
E9
  8
DATA
  6
CONTINUOUS
 62
     7
 10
384.5
 20
374.0
 30
0.0
 40
1.5
  0
CIRCLE
  5
EA
  8
DATA
  6
CONTINUOUS
 62
     7
 10
374.5
 20
374.0
 30
0.0
 40
1.5
  0
CIRCLE
  5
EB
  8
DATA
  6
CONTINUOUS
 62
     7
 10
364.5
 20
374.0
 30
0.0
 40
1.5
  0
CIRCLE
  5
EC
  8
DATA
  6
CONTINUOUS
 62
     7
 10
354.5
 20
374.0
 30
0.0
 40
1.5
  0
CIRCLE
  5
ED
  8
DATA
  6
CONTINUOUS
 62
     7
 10
314.5
 20
374.0
 30
0.0
 40
1.5
  0
CIRCLE
  5
EE
  8
DATA
  6
CONTINUOUS
 62
     7
 10
304.5
 20
374.0
 30
0.0
 40
1.5
  0
CIRCLE
  5
EF
  8
DATA
  6
CONTINUOUS
 62
     7
 10
294.5
 20
374.0
 30
0.0
 40
1.5
  0
CIRCLE
  5
F0
  8
DATA
  6
CONTINUOUS
 62
     7
 10
284.5
 20
374.0
 30
0.0
 40
1.5
  0
CIRCLE
  5
F1
  8
DATA
  6
CONTINUOUS
 62
     7
 10
259.5
 20
374.0
 30
0.0
 40
1.5
  0
CIRCLE
  5
F2
  8
DATA
  6
CONTINUOUS
 62
     7
 10
224.5
 20
369.0
 30
0.0
 40
5.0
  0
CIRCLE
  5
F3
  8
DATA
  6
CONTINUOUS
 62
     7
 10
259.5
 20
365.0
 30
0.0
 40
2.0
  0
TEXT
  5
F4
  8
DATA
 62
     7
 10
436.04749619456828
 20
353.67646354712753
 30
0.0
 40
9.5015733506944464
  1
4\U+00D74Matrix
 41
0.7
 11
436.04749619456828
 21
363.17803689782198
 31
0.0
 73
     3
1001
ACADANNOTATIVE
1000
AnnotativeData
1002
{
1070
     1
1070
     0
1002
}
  0
TEXT
  5
F5
  8
DATA
 62
     7
 10
502.67875628019999
 20
353.67646354712753
 30
0.0
 40
9.5015733506944464
  1
for
 41
0.7
 11
502.67875628019999
 21
363.17803689782198
 31
0.0
 73
     3
1001
ACADANNOTATIVE
1000
AnnotativeData
1002
{
1070
     1
1070
     0
1002
}
  0
TEXT
  5
F6
  8
DATA
 62
     7
 10
525.14367796119109
 20
353.67646354712753
 30
0.0
 40
9.5015733506944464
  1
HDMI1.3
 41
0.7
 11
525.14367796119109
 21
363.17803689782198
 31
0.0
 73
     3
1001
ACADANNOTATIVE
1000
AnnotativeData
1002
{
1070
     1
1070
     0
1002
}
  0
TEXT
  5
F7
  8
DATA
 62
     7
 10
283.61583415576951
 20
378.98913812971779
 30
0.0
 40
3.3934190538194442
  1
1
 41
0.7
 11
283.61583415576951
 21
382.3825571835373
 31
0.0
 73
     3
1001
ACADANNOTATIVE
1000
AnnotativeData
1002
{
1070
     1
1070
     0
1002
}
  0
TEXT
  5
F8
  8
DATA
 62
     7
 10
293.61583415576951
 20
378.98913812971779
 30
0.0
 40
3.3934190538194442
  1
2
 41
0.7
 11
293.61583415576951
 21
382.3825571835373
 31
0.0
 73
     3
1001
ACADANNOTATIVE
1000
AnnotativeData
1002
{
1070
     1
1070
     0
1002
}
  0
TEXT
  5
F9
  8
DATA
 62
     7
 10
303.61583415576951
 20
378.98913812971779
 30
0.0
 40
3.3934190538194442
  1
3
 41
0.7
 11
303.61583415576951
 21
382.3825571835373
 31
0.0
 73
     3
1001
ACADANNOTATIVE
1000
AnnotativeData
1002
{
1070
     1
1070
     0
1002
}
  0
TEXT
  5
FA
  8
DATA
 62
     7
 10
313.04570882723141
 20
378.98913812971779
 30
0.0
 40
3.3934190538194442
  1
4
 41
0.7
 11
313.04570882723141
 21
382.3825571835373
 31
0.0
 73
     3
1001
ACADANNOTATIVE
1000
AnnotativeData
1002
{
1070
     1
1070
     0
1002
}
  0
TEXT
  5
FB
  8
DATA
 62
     7
 10
353.61583415576951
 20
378.98913812971779
 30
0.0
 40
3.3934190538194442
  1
1
 41
0.7
 11
353.61583415576951
 21
382.3825571835373
 31
0.0
 73
     3
1001
ACADANNOTATIVE
1000
AnnotativeData
1002
{
1070
     1
1070
     0
1002
}
  0
TEXT
  5
FC
  8
DATA
 62
     7
 10
363.61583415576951
 20
378.98913812971779
 30
0.0
 40
3.3934190538194442
  1
2
 41
0.7
 11
363.61583415576951
 21
382.3825571835373
 31
0.0
 73
     3
1001
ACADANNOTATIVE
1000
AnnotativeData
1002
{
1070
     1
1070
     0
1002
}
  0
TEXT
  5
FD
  8
DATA
 62
     7
 10
373.61583415576951
 20
378.98913812971779
 30
0.0
 40
3.3934190538194442
  1
3
 41
0.7
 11
373.61583415576951
 21
382.3825571835373
 31
0.0
 73
     3
1001
ACADANNOTATIVE
1000
AnnotativeData
1002
{
1070
     1
1070
     0
1002
}
  0
TEXT
  5
FE
  8
DATA
 62
     7
 10
383.04570882723129
 20
378.98913812971779
 30
0.0
 40
3.3934190538194442
  1
4
 41
0.7
 11
383.04570882723129
 21
382.3825571835373
 31
0.0
 73
     3
1001
ACADANNOTATIVE
1000
AnnotativeData
1002
{
1070
     1
1070
     0
1002
}
  0
TEXT
  5
FF
  8
DATA
 62
     7
 10
423.61583415576951
 20
378.98913812971779
 30
0.0
 40
3.3934190538194442
  1
1
 41
0.7
 11
423.61583415576951
 21
382.3825571835373
 31
0.0
 73
     3
1001
ACADANNOTATIVE
1000
AnnotativeData
1002
{
1070
     1
1070
     0
1002
}
  0
TEXT
  5
100
  8
DATA
 62
     7
 10
433.61583415576951
 20
378.98913812971779
 30
0.0
 40
3.3934190538194442
  1
2
 41
0.7
 11
433.61583415576951
 21
382.3825571835373
 31
0.0
 73
     3
1001
ACADANNOTATIVE
1000
AnnotativeData
1002
{
1070
     1
1070
     0
1002
}
  0
TEXT
  5
101
  8
DATA
 62
     7
 10
443.61583415576939
 20
378.98913812971779
 30
0.0
 40
3.3934190538194442
  1
3
 41
0.7
 11
443.61583415576939
 21
382.3825571835373
 31
0.0
 73
     3
1001
ACADANNOTATIVE
1000
AnnotativeData
1002
{
1070
     1
1070
     0
1002
}
  0
TEXT
  5
102
  8
DATA
 62
     7
 10
453.04570882723129
 20
378.98913812971779
 30
0.0
 40
3.3934190538194442
  1
4
 41
0.7
 11
453.04570882723129
 21
382.3825571835373
 31
0.0
 73
     3
1001
ACADANNOTATIVE
1000
AnnotativeData
1002
{
1070
     1
1070
     0
1002
}
  0
TEXT
  5
103
  8
DATA
 62
     7
 10
493.61583415576939
 20
378.98913812971779
 30
0.0
 40
3.3934190538194442
  1
1
 41
0.7
 11
493.61583415576939
 21
382.3825571835373
 31
0.0
 73
     3
1001
ACADANNOTATIVE
1000
AnnotativeData
1002
{
1070
     1
1070
     0
1002
}
  0
TEXT
  5
104
  8
DATA
 62
     7
 10
503.61583415576951
 20
378.98913812971779
 30
0.0
 40
3.3934190538194442
  1
2
 41
0.7
 11
503.61583415576951
 21
382.3825571835373
 31
0.0
 73
     3
1001
ACADANNOTATIVE
1000
AnnotativeData
1002
{
1070
     1
1070
     0
1002
}
  0
TEXT
  5
105
  8
DATA
 62
     7
 10
513.61583415576956
 20
378.98913812971779
 30
0.0
 40
3.3934190538194442
  1
3
 41
0.7
 11
513.61583415576956
 21
382.3825571835373
 31
0.0
 73
     3
1001
ACADANNOTATIVE
1000
AnnotativeData
1002
{
1070
     1
1070
     0
1002
}
  0
TEXT
  5
106
  8
DATA
 62
     7
 10
523.04570882723135
 20
378.98913812971779
 30
0.0
 40
3.3934190538194442
  1
4
 41
0.7
 11
523.04570882723135
 21
382.3825571835373
 31
0.0
 73
     3
1001
ACADANNOTATIVE
1000
AnnotativeData
1002
{
1070
     1
1070
     0
1002
}
  0
TEXT
  5
107
  8
DATA
 62
     7
 10
254.58361299482479
 20
379.24648765095458
 30
0.0
 40
3.3934190538194442
  1
Power
 41
0.7
 11
254.58361299482479
 21
382.63990670477409
 31
0.0
 73
     3
1001
ACADANNOTATIVE
1000
AnnotativeData
1002
{
1070
     1
1070
     0
1002
}
  0
TEXT
  5
108
  8
DATA
 62
     7
 10
254.58361299482479
 20
356.38700750536913
 30
0.0
 40
3.3934190538194442
  1
Reset
 41
0.7
 11
254.58361299482479
 21
359.78042655918853
 31
0.0
 73
     3
1001
ACADANNOTATIVE
1000
AnnotativeData
1002
{
1070
     1
1070
     0
1002
}
  0
TEXT
  5
109
  8
DATA
 62
     7
 10
221.8586071548188
 20
356.38700750536913
 30
0.0
 40
3.3934190538194442
  1
IR
 41
0.7
 11
221.8586071548188
 21
359.78042655918853
 31
0.0
 73
     3
1001
ACADANNOTATIVE
1000
AnnotativeData
1002
{
1070
     1
1070
     0
1002
}
  0
CIRCLE
  5
10A
  8
DATA
  6
CONTINUOUS
 62
     7
 10
259.5
 20
365.0
 30
0.0
 40
1.8000000000000109
  0
ARC
  5
10B
  8
DATA
  6
CONTINUOUS
 62
     7
 10
284.5
 20
461.0
 30
0.0
 40
1.5
 50
180.0
 51
0.0
  0
LINE
  5
10C
  8
DATA
  6
CONTINUOUS
 62
     7
 10
283.0
 20
461.0
 30
0.0
 11
283.0
 21
462.5
 31
0.0
  0
LINE
  5
10D
  8
DATA
  6
CONTINUOUS
 62
     7
 10
286.0
 20
461.0
 30
0.0
 11
286.0
 21
462.5
 31
0.0
  0
ARC
  5
10E
  8
DATA
  6
CONTINUOUS
 62
     7
 10
294.5
 20
461.0
 30
0.0
 40
1.5
 50
180.0
 51
0.0
  0
LINE
  5
10F
  8
DATA
  6
CONTINUOUS
 62
     7
 10
293.0
 20
461.0
 30
0.0
 11
293.0
 21
462.5
 31
0.0
  0
LINE
  5
110
  8
DATA
  6
CONTINUOUS
 62
     7
 10
296.0
 20
461.0
 30
0.0
 11
296.0
 21
462.5
 31
0.0
  0
ARC
  5
111
  8
DATA
  6
CONTINUOUS
 62
     7
 10
304.5
 20
461.0
 30
0.0
 40
1.5
 50
180.0
 51
0.0
  0
LINE
  5
112
  8
DATA
  6
CONTINUOUS
 62
     7
 10
303.0
 20
461.0
 30
0.0
 11
303.0
 21
462.5
 31
0.0
  0
LINE
  5
113
  8
DATA
  6
CONTINUOUS
 62
     7
 10
306.0
 20
461.0
 30
0.0
 11
306.0
 21
462.5
 31
0.0
  0
ARC
  5
114
  8
DATA
  6
CONTINUOUS
 62
     7
 10
314.5
 20
461.0
 30
0.0
 40
1.5
 50
180.0
 51
0.0
  0
LINE
  5
115
  8
DATA
  6
CONTINUOUS
 62
     7
 10
313.0
 20
461.0
 30
0.0
 11
313.0
 21
462.5
 31
0.0
  0
LINE
  5
116
  8
DATA
  6
CONTINUOUS
 62
     7
 10
316.0
 20
461.0
 30
0.0
 11
316.0
 21
462.5
 31
0.0
  0
ARC
  5
117
  8
DATA
  6
CONTINUOUS
 62
     7
 10
354.5
 20
461.0
 30
0.0
 40
1.5
 50
180.0
 51
0.0
  0
LINE
  5
118
  8
DATA
  6
CONTINUOUS
 62
     7
 10
353.0
 20
461.0
 30
0.0
 11
353.0
 21
462.5
 31
0.0
  0
LINE
  5
119
  8
DATA
  6
CONTINUOUS
 62
     7
 10
356.0
 20
461.0
 30
0.0
 11
356.0
 21
462.5
 31
0.0
  0
ARC
  5
11A
  8
DATA
  6
CONTINUOUS
 62
     7
 10
364.5
 20
461.0
 30
0.0
 40
1.5
 50
180.0
 51
0.0
  0
LINE
  5
11B
  8
DATA
  6
CONTINUOUS
 62
     7
 10
363.0
 20
461.0
 30
0.0
 11
363.0
 21
462.5
 31
0.0
  0
LINE
  5
11C
  8
DATA
  6
CONTINUOUS
 62
     7
 10
366.0
 20
461.0
 30
0.0
 11
366.0
 21
462.5
 31
0.0
  0
ARC
  5
11D
  8
DATA
  6
CONTINUOUS
 62
     7
 10
374.5
 20
461.0
 30
0.0
 40
1.5
 50
180.0
 51
0.0
  0
LINE
  5
11E
  8
DATA
  6
CONTINUOUS
 62
     7
 10
373.0
 20
461.0
 30
0.0
 11
373.0
 21
462.5
 31
0.0
  0
LINE
  5
11F
  8
DATA
  6
CONTINUOUS
 62
     7
 10
376.0
 20
461.0
 30
0.0
 11
376.0
 21
462.5
 31
0.0
  0
ARC
  5
120
  8
DATA
  6
CONTINUOUS
 62
     7
 10
384.5
 20
461.0
 30
0.0
 40
1.5
 50
180.0
 51
0.0
  0
LINE
  5
121
  8
DATA
  6
CONTINUOUS
 62
     7
 10
383.0
 20
461.0
 30
0.0
 11
383.0
 21
462.5
 31
0.0
  0
LINE
  5
122
  8
DATA
  6
CONTINUOUS
 62
     7
 10
386.0
 20
461.0
 30
0.0
 11
386.0
 21
462.5
 31
0.0
  0
ARC
  5
123
  8
DATA
  6
CONTINUOUS
 62
     7
 10
424.5
 20
461.0
 30
0.0
 40
1.5
 50
180.0
 51
0.0
  0
LINE
  5
124
  8
DATA
  6
CONTINUOUS
 62
     7
 10
423.0
 20
461.0
 30
0.0
 11
423.0
 21
462.5
 31
0.0
  0
LINE
  5
125
  8
DATA
  6
CONTINUOUS
 62
     7
 10
426.0
 20
461.0
 30
0.0
 11
426.0
 21
462.5
 31
0.0
  0
ARC
  5
126
  8
DATA
  6
CONTINUOUS
 62
     7
 10
434.49999999999989
 20
461.0
 30
0.0
 40
1.5
 50
180.0
 51
0.0
  0
LINE
  5
127
  8
DATA
  6
CONTINUOUS
 62
     7
 10
433.0
 20
461.0
 30
0.0
 11
433.0
 21
462.5
 31
0.0
  0
LINE
  5
128
  8
DATA
  6
CONTINUOUS
 62
     7
 10
436.0
 20
461.0
 30
0.0
 11
436.0
 21
462.5
 31
0.0
  0
ARC
  5
129
  8
DATA
  6
CONTINUOUS
 62
     7
 10
444.5
 20
461.0
 30
0.0
 40
1.5
 50
180.0
 51
0.0
  0
LINE
  5
12A
  8
DATA
  6
CONTINUOUS
 62
     7
 10
443.0
 20
461.0
 30
0.0
 11
443.0
 21
462.5
 31
0.0
  0
LINE
  5
12B
  8
DATA
  6
CONTINUOUS
 62
     7
 10
446.0
 20
461.0
 30
0.0
 11
446.0
 21
462.5
 31
0.0
  0
ARC
  5
12C
  8
DATA
  6
CONTINUOUS
 62
     7
 10
454.49999999999989
 20
461.0
 30
0.0
 40
1.5
 50
180.0
 51
0.0
  0
LINE
  5
12D
  8
DATA
  6
CONTINUOUS
 62
     7
 10
453.0
 20
461.0
 30
0.0
 11
453.0
 21
462.5
 31
0.0
  0
LINE
  5
12E
  8
DATA
  6
CONTINUOUS
 62
     7
 10
456.0
 20
461.0
 30
0.0
 11
456.0
 21
462.5
 31
0.0
  0
ARC
  5
12F
  8
DATA
  6
CONTINUOUS
 62
     7
 10
494.5
 20
461.0
 30
0.0
 40
1.5
 50
180.0
 51
0.0
  0
LINE
  5
130
  8
DATA
  6
CONTINUOUS
 62
     7
 10
493.0
 20
461.0
 30
0.0
 11
493.0
 21
462.5
 31
0.0
  0
LINE
  5
131
  8
DATA
  6
CONTINUOUS
 62
     7
 10
496.0
 20
461.0
 30
0.0
 11
496.0
 21
462.5
 31
0.0
  0
ARC
  5
132
  8
DATA
  6
CONTINUOUS
 62
     7
 10
504.49999999999989
 20
461.0
 30
0.0
 40
1.5
 50
180.0
 51
0.0
  0
LINE
  5
133
  8
DATA
  6
CONTINUOUS
 62
     7
 10
503.0
 20
461.0
 30
0.0
 11
503.0
 21
462.5
 31
0.0
  0
LINE
  5
134
  8
DATA
  6
CONTINUOUS
 62
     7
 10
506.0
 20
461.0
 30
0.0
 11
506.0
 21
462.5
 31
0.0
  0
ARC
  5
135
  8
DATA
  6
CONTINUOUS
 62
     7
 10
514.5
 20
461.0
 30
0.0
 40
1.5
 50
180.0
 51
0.0
  0
LINE
  5
136
  8
DATA
  6
CONTINUOUS
 62
     7
 10
513.0
 20
461.0
 30
0.0
 11
513.0
 21
462.5
 31
0.0
  0
LINE
  5
137
  8
DATA
  6
CONTINUOUS
 62
     7
 10
516.0
 20
461.0
 30
0.0
 11
516.0
 21
462.5
 31
0.0
  0
ARC
  5
138
  8
DATA
  6
CONTINUOUS
 62
     7
 10
524.5
 20
461.0
 30
0.0
 40
1.5
 50
180.0
 51
0.0
  0
LINE
  5
139
  8
DATA
  6
CONTINUOUS
 62
     7
 10
523.0
 20
461.0
 30
0.0
 11
523.0
 21
462.5
 31
0.0
  0
LINE
  5
13A
  8
DATA
  6
CONTINUOUS
 62
     7
 10
526.0
 20
461.0
 30
0.0
 11
526.0
 21
462.5
 31
0.0
  0
ARC
  5
13B
  8
DATA
  6
CONTINUOUS
 62
     7
 10
259.5
 20
462.34465886269311
 30
0.0
 40
1.5
 50
180.0
 51
0.0
  0
LINE
  5
13C
  8
DATA
  6
CONTINUOUS
 62
     7
 10
258.0
 20
462.34465886269311
 30
0.0
 11
258.0
 21
462.5
 31
0.0
  0
LINE
  5
13D
  8
DATA
  6
CONTINUOUS
 62
     7
 10
261.0
 20
462.34465886269311
 30
0.0
 11
261.0
 21
462.5
 31
0.0
  0
LINE
  5
13E
  8
DATA
  6
CONTINUOUS
 62
     7
 10
257.5
 20
461.5
 30
0.0
 11
257.5
 21
462.5
 31
0.0
  0
LINE
  5
13F
  8
DATA
  6
CONTINUOUS
 62
     7
 10
261.5
 20
461.5
 30
0.0
 11
261.5
 21
462.5
 31
0.0
  0
LINE
  5
140
  8
DATA
  6
CONTINUOUS
 62
     7
 10
257.5
 20
461.5
 30
0.0
 11
258.26042289240411
 21
461.5
 31
0.0
  0
LINE
  5
141
  8
DATA
  6
CONTINUOUS
 62
     7
 10
260.73957710759578
 20
461.5
 30
0.0
 11
261.5
 21
461.5
 31
0.0
  0
LINE
  5
142
  8
DATA
  6
CONTINUOUS
 62
     7
 10
183.0
 20
346.0
 30
0.0
 11
182.5
 21
350.0
 31
0.0
  0
LINE
  5
143
  8
DATA
  6
CONTINUOUS
 62
     7
 10
201.0
 20
346.0
 30
0.0
 11
201.5
 21
350.0
 31
0.0
  0
LINE
  5
144
  8
DATA
  6
CONTINUOUS
 62
     7
 10
183.0
 20
346.0
 30
0.0
 11
201.0
 21
346.0
 31
0.0
  0
LINE
  5
145
  8
DATA
  6
CONTINUOUS
 62
     7
 10
599.0
 20
346.0
 30
0.0
 11
599.5
 21
350.0
 31
0.0
  0
LINE
  5
146
  8
DATA
  6
CONTINUOUS
 62
     7
 10
581.0
 20
346.0
 30
0.0
 11
580.49999999999989
 21
350.0
 31
0.0
  0
LINE
  5
147
  8
DATA
  6
CONTINUOUS
 62
     7
 10
599.0
 20
346.0
 30
0.0
 11
581.0
 21
346.0
 31
0.0
  0
LINE
  5
148
  8
DATA
  6
CONTINUOUS
 62
     7
 10
173.5
 20
781.5
 30
0.0
 11
173.5
 21
737.5
 31
0.0
  0
LINE
  5
149
  8
DATA
  6
CONTINUOUS
 62
     7
 10
608.49999999999989
 20
781.5
 30
0.0
 11
173.5
 21
781.5
 31
0.0
  0
LINE
  5
14A
  8
DATA
  6
CONTINUOUS
 62
     7
 10
608.49999999999989
 20
737.5
 30
0.0
 11
608.49999999999989
 21
781.5
 31
0.0
  0
LINE
  5
14B
  8
DATA
  6
CONTINUOUS
 62
     7
 10
174.5
 20
737.5
 30
0.0
 11
607.5
 21
737.5
 31
0.0
  0
LINE
  5
14C
  8
DATA
  6
CONTINUOUS
 62
     7
 10
150.0
 20
781.5
 30
0.0
 11
150.0
 21
737.5
 31
0.0
  0
LINE
  5
14D
  8
DATA
  6
CONTINUOUS
 62
     7
 10
632.0
 20
737.5
 30
0.0
 11
632.0
 21
781.5
 31
0.0
  0
LINE
  5
14E
  8
DATA
  6
CONTINUOUS
 62
     7
 10
150.0
 20
737.5
 30
0.0
 11
174.33213278776131
 21
737.5
 31
0.0
  0
LINE
  5
14F
  8
DATA
  6
CONTINUOUS
 62
     7
 10
632.0
 20
737.5
 30
0.0
 11
607.5
 21
737.5
 31
0.0
  0
LINE
  5
150
  8
DATA
  6
CONTINUOUS
 62
     7
 10
173.5
 20
781.5
 30
0.0
 11
150.0
 21
781.5
 31
0.0
  0
LINE
  5
151
  8
DATA
  6
CONTINUOUS
 62
     7
 10
608.49999999999989
 20
781.5
 30
0.0
 11
632.0
 21
781.5
 31
0.0
  0
ARC
  5
152
  8
DATA
  6
CONTINUOUS
 62
     7
 10
156.5
 20
743.59999999999991
 30
0.0
 40
3.5
 50
90.000000000000938
 51
269.99999999999909
  0
ARC
  5
153
  8
DATA
  6
CONTINUOUS
 62
     7
 10
160.49999999999989
 20
743.59999999999991
 30
0.0
 40
3.5
 50
270.00000000000091
 51
89.999999999999091
  0
LINE
  5
154
  8
DATA
  6
CONTINUOUS
 62
     7
 10
156.5
 20
740.10000000000002
 30
0.0
 11
160.49999999999989
 21
740.10000000000002
 31
0.0
  0
LINE
  5
155
  8
DATA
  6
CONTINUOUS
 62
     7
 10
156.5
 20
747.10000000000002
 30
0.0
 11
160.49999999999989
 21
747.10000000000002
 31
0.0
  0
ARC
  5
156
  8
DATA
  6
CONTINUOUS
 62
     7
 10
156.5
 20
775.39999999999986
 30
0.0
 40
3.5
 50
90.000000000000938
 51
269.99999999999909
  0
ARC
  5
157
  8
DATA
  6
CONTINUOUS
 62
     7
 10
160.49999999999989
 20
775.39999999999986
 30
0.0
 40
3.5
 50
270.00000000000091
 51
89.999999999999091
  0
LINE
  5
158
  8
DATA
  6
CONTINUOUS
 62
     7
 10
156.5
 20
778.89999999999986
 30
0.0
 11
160.49999999999989
 21
778.89999999999986
 31
0.0
  0
LINE
  5
159
  8
DATA
  6
CONTINUOUS
 62
     7
 10
156.5
 20
771.89999999999998
 30
0.0
 11
160.49999999999989
 21
771.89999999999998
 31
0.0
  0
ARC
  5
15A
  8
DATA
  6
CONTINUOUS
 62
     7
 10
625.49999999999989
 20
743.59999999999991
 30
0.0
 40
3.5
 50
270.00000000000091
 51
89.999999999999091
  0
ARC
  5
15B
  8
DATA
  6
CONTINUOUS
 62
     7
 10
621.49999999999989
 20
743.59999999999991
 30
0.0
 40
3.5
 50
90.000000000000938
 51
269.99999999999909
  0
LINE
  5
15C
  8
DATA
  6
CONTINUOUS
 62
     7
 10
625.49999999999989
 20
740.10000000000002
 30
0.0
 11
621.49999999999989
 21
740.10000000000002
 31
0.0
  0
LINE
  5
15D
  8
DATA
  6
CONTINUOUS
 62
     7
 10
625.49999999999989
 20
747.10000000000002
 30
0.0
 11
621.49999999999989
 21
747.10000000000002
 31
0.0
  0
ARC
  5
15E
  8
DATA
  6
CONTINUOUS
 62
     7
 10
625.49999999999989
 20
775.39999999999986
 30
0.0
 40
3.5
 50
270.00000000000091
 51
89.999999999999091
  0
ARC
  5
15F
  8
DATA
  6
CONTINUOUS
 62
     7
 10
621.49999999999989
 20
775.39999999999986
 30
0.0
 40
3.5
 50
90.000000000000938
 51
269.99999999999909
  0
LINE
  5
160
  8
DATA
  6
CONTINUOUS
 62
     7
 10
625.49999999999989
 20
778.89999999999986
 30
0.0
 11
621.49999999999989
 21
778.89999999999986
 31
0.0
  0
LINE
  5
161
  8
DATA
  6
CONTINUOUS
 62
     7
 10
625.49999999999989
 20
771.89999999999998
 30
0.0
 11
621.49999999999989
 21
771.89999999999998
 31
0.0
  0
LINE
  5
162
  8
DATA
  6
CONTINUOUS
 62
     7
 10
183.0
 20
785.5
 30
0.0
 11
182.5
 21
781.5
 31
0.0
  0
LINE
  5
163
  8
DATA
  6
CONTINUOUS
 62
     7
 10
201.0
 20
785.5
 30
0.0
 11
201.5
 21
781.5
 31
0.0
  0
LINE
  5
164
  8
DATA
  6
CONTINUOUS
 62
     7
 10
183.0
 20
785.5
 30
0.0
 11
201.0
 21
785.5
 31
0.0
  0
LINE
  5
165
  8
DATA
  6
CONTINUOUS
 62
     7
 10
599.0
 20
785.5
 30
0.0
 11
599.5
 21
781.5
 31
0.0
  0
LINE
  5
166
  8
DATA
  6
CONTINUOUS
 62
     7
 10
581.0
 20
785.5
 30
0.0
 11
580.49999999999989
 21
781.5
 31
0.0
  0
LINE
  5
167
  8
DATA
  6
CONTINUOUS
 62
     7
 10
599.0
 20
785.5
 30
0.0
 11
581.0
 21
785.5
 31
0.0
  0
POLYLINE
  5
168
  8
DATA
  6
CONTINUOUS
 62
     7
 66
     1
 10
0.0
 20
0.0
 30
0.0
  0
VERTEX
  5
4BD
  8
DATA
  6
CONTINUOUS
 62
     7
 10
222.5
 20
767.4801260329433
 30
0.0
  0
VERTEX
  5
4BE
  8
DATA
  6
CONTINUOUS
 62
     7
 10
222.5
 20
763.4801260329433
 30
0.0
  0
VERTEX
  5
4BF
  8
DATA
  6
CONTINUOUS
 62
     7
 10
238.50000000000011
 20
763.4801260329433
 30
0.0
  0
VERTEX
  5
4C0
  8
DATA
  6
CONTINUOUS
 62
     7
 10
238.50000000000011
 20
767.4801260329433
 30
0.0
  0
SEQEND
  5
4C1
  8
DATA
  6
CONTINUOUS
 62
     7
  0
LINE
  5
16F
  8
DATA
  6
CONTINUOUS
 62
     7
 10
235.9999999999996
 20
769.4801260329433
 30
0.0
 11
225.00000000000031
 21
769.4801260329433
 31
0.0
  0
ARC
  5
170
  8
DATA
  6
CONTINUOUS
 62
     7
 10
221.2308163265306
 20
771.62910562477964
 30
0.0
 40
4.3387623639094164
 50
287.00900813209682
 51
330.31060837608419
  0
ARC
  5
171
  8
DATA
  6
CONTINUOUS
 62
     7
 10
239.7691836734694
 20
771.62910562477964
 30
0.0
 40
4.3387623639096384
 50
209.6893916239147
 51
252.99099186790241
  0
CIRCLE
  5
172
  8
DATA
  6
CONTINUOUS
 62
     7
 10
230.5089466558168
 20
758.43142402473211
 30
0.0
 40
1.175000000000068
  0
POLYLINE
  5
173
  8
DATA
  6
CONTINUOUS
 62
     7
 66
     1
 10
0.0
 20
0.0
 30
0.0
 70
     1
  0
VERTEX
  5
4C2
  8
DATA
  6
CONTINUOUS
 62
     7
 10
230.5089466558168
 20
755.73142402473241
 30
0.0
  0
VERTEX
  5
4C3
  8
DATA
  6
CONTINUOUS
 62
     7
 10
232.84721524603469
 20
757.08142402473209
 30
0.0
  0
VERTEX
  5
4C4
  8
DATA
  6
CONTINUOUS
 62
     7
 10
232.84721524603469
 20
759.7814240247319
 30
0.0
  0
VERTEX
  5
4C5
  8
DATA
  6
CONTINUOUS
 62
     7
 10
230.5089466558168
 20
761.13142402473193
 30
0.0
  0
VERTEX
  5
4C6
  8
DATA
  6
CONTINUOUS
 62
     7
 10
228.17067806559879
 20
759.7814240247319
 30
0.0
  0
VERTEX
  5
4C7
  8
DATA
  6
CONTINUOUS
 62
     7
 10
228.17067806559879
 20
757.08142402473209
 30
0.0
  0
SEQEND
  5
4C8
  8
DATA
  6
CONTINUOUS
 62
     7
  0
POLYLINE
  5
17C
  8
DATA
  6
CONTINUOUS
 62
     7
 66
     1
 10
0.0
 20
0.0
 30
0.0
  0
VERTEX
  5
4C9
  8
DATA
  6
CONTINUOUS
 62
     7
 10
257.49999999999989
 20
767.4801260329433
 30
0.0
  0
VERTEX
  5
4CA
  8
DATA
  6
CONTINUOUS
 62
     7
 10
257.49999999999989
 20
763.4801260329433
 30
0.0
  0
VERTEX
  5
4CB
  8
DATA
  6
CONTINUOUS
 62
     7
 10
273.50000000000011
 20
763.4801260329433
 30
0.0
  0
VERTEX
  5
4CC
  8
DATA
  6
CONTINUOUS
 62
     7
 10
273.50000000000011
 20
767.4801260329433
 30
0.0
  0
SEQEND
  5
4CD
  8
DATA
  6
CONTINUOUS
 62
     7
  0
LINE
  5
183
  8
DATA
  6
CONTINUOUS
 62
     7
 10
270.9999999999996
 20
769.4801260329433
 30
0.0
 11
260.00000000000028
 21
769.4801260329433
 31
0.0
  0
ARC
  5
184
  8
DATA
  6
CONTINUOUS
 62
     7
 10
256.2308163265306
 20
771.62910562477964
 30
0.0
 40
4.3387623639094164
 50
287.00900813209682
 51
330.31060837608419
  0
ARC
  5
185
  8
DATA
  6
CONTINUOUS
 62
     7
 10
274.7691836734694
 20
771.62910562477964
 30
0.0
 40
4.3387623639096384
 50
209.6893916239147
 51
252.99099186790241
  0
CIRCLE
  5
186
  8
DATA
  6
CONTINUOUS
 62
     7
 10
265.50894665581683
 20
758.43142402473211
 30
0.0
 40
1.175000000000068
  0
POLYLINE
  5
187
  8
DATA
  6
CONTINUOUS
 62
     7
 66
     1
 10
0.0
 20
0.0
 30
0.0
 70
     1
  0
VERTEX
  5
4CE
  8
DATA
  6
CONTINUOUS
 62
     7
 10
265.50894665581683
 20
755.73142402473241
 30
0.0
  0
VERTEX
  5
4CF
  8
DATA
  6
CONTINUOUS
 62
     7
 10
267.84721524603481
 20
757.08142402473209
 30
0.0
  0
VERTEX
  5
4D0
  8
DATA
  6
CONTINUOUS
 62
     7
 10
267.84721524603481
 20
759.7814240247319
 30
0.0
  0
VERTEX
  5
4D1
  8
DATA
  6
CONTINUOUS
 62
     7
 10
265.50894665581683
 20
761.13142402473193
 30
0.0
  0
VERTEX
  5
4D2
  8
DATA
  6
CONTINUOUS
 62
     7
 10
263.17067806559891
 20
759.7814240247319
 30
0.0
  0
VERTEX
  5
4D3
  8
DATA
  6
CONTINUOUS
 62
     7
 10
263.17067806559891
 20
757.08142402473209
 30
0.0
  0
SEQEND
  5
4D4
  8
DATA
  6
CONTINUOUS
 62
     7
  0
POLYLINE
  5
190
  8
DATA
  6
CONTINUOUS
 62
     7
 66
     1
 10
0.0
 20
0.0
 30
0.0
  0
VERTEX
  5
4D5
  8
DATA
  6
CONTINUOUS
 62
     7
 10
303.5
 20
767.4801260329433
 30
0.0
  0
VERTEX
  5
4D6
  8
DATA
  6
CONTINUOUS
 62
     7
 10
303.5
 20
763.4801260329433
 30
0.0
  0
VERTEX
  5
4D7
  8
DATA
  6
CONTINUOUS
 62
     7
 10
319.50000000000011
 20
763.4801260329433
 30
0.0
  0
VERTEX
  5
4D8
  8
DATA
  6
CONTINUOUS
 62
     7
 10
319.50000000000011
 20
767.4801260329433
 30
0.0
  0
SEQEND
  5
4D9
  8
DATA
  6
CONTINUOUS
 62
     7
  0
LINE
  5
197
  8
DATA
  6
CONTINUOUS
 62
     7
 10
316.9999999999996
 20
769.4801260329433
 30
0.0
 11
306.00000000000028
 21
769.4801260329433
 31
0.0
  0
ARC
  5
198
  8
DATA
  6
CONTINUOUS
 62
     7
 10
302.2308163265306
 20
771.62910562477964
 30
0.0
 40
4.3387623639094164
 50
287.00900813209682
 51
330.31060837608419
  0
ARC
  5
199
  8
DATA
  6
CONTINUOUS
 62
     7
 10
320.7691836734694
 20
771.62910562477964
 30
0.0
 40
4.3387623639096384
 50
209.6893916239147
 51
252.99099186790241
  0
CIRCLE
  5
19A
  8
DATA
  6
CONTINUOUS
 62
     7
 10
311.50894665581683
 20
758.43142402473211
 30
0.0
 40
1.175000000000068
  0
POLYLINE
  5
19B
  8
DATA
  6
CONTINUOUS
 62
     7
 66
     1
 10
0.0
 20
0.0
 30
0.0
 70
     1
  0
VERTEX
  5
4DA
  8
DATA
  6
CONTINUOUS
 62
     7
 10
311.50894665581683
 20
755.73142402473241
 30
0.0
  0
VERTEX
  5
4DB
  8
DATA
  6
CONTINUOUS
 62
     7
 10
313.84721524603481
 20
757.08142402473209
 30
0.0
  0
VERTEX
  5
4DC
  8
DATA
  6
CONTINUOUS
 62
     7
 10
313.84721524603481
 20
759.7814240247319
 30
0.0
  0
VERTEX
  5
4DD
  8
DATA
  6
CONTINUOUS
 62
     7
 10
311.50894665581683
 20
761.13142402473193
 30
0.0
  0
VERTEX
  5
4DE
  8
DATA
  6
CONTINUOUS
 62
     7
 10
309.17067806559891
 20
759.7814240247319
 30
0.0
  0
VERTEX
  5
4DF
  8
DATA
  6
CONTINUOUS
 62
     7
 10
309.17067806559891
 20
757.08142402473209
 30
0.0
  0
SEQEND
  5
4E0
  8
DATA
  6
CONTINUOUS
 62
     7
  0
POLYLINE
  5
1A4
  8
DATA
  6
CONTINUOUS
 62
     7
 66
     1
 10
0.0
 20
0.0
 30
0.0
  0
VERTEX
  5
4E1
  8
DATA
  6
CONTINUOUS
 62
     7
 10
349.5
 20
767.4801260329433
 30
0.0
  0
VERTEX
  5
4E2
  8
DATA
  6
CONTINUOUS
 62
     7
 10
349.5
 20
763.4801260329433
 30
0.0
  0
VERTEX
  5
4E3
  8
DATA
  6
CONTINUOUS
 62
     7
 10
365.50000000000011
 20
763.4801260329433
 30
0.0
  0
VERTEX
  5
4E4
  8
DATA
  6
CONTINUOUS
 62
     7
 10
365.50000000000011
 20
767.4801260329433
 30
0.0
  0
SEQEND
  5
4E5
  8
DATA
  6
CONTINUOUS
 62
     7
  0
LINE
  5
1AB
  8
DATA
  6
CONTINUOUS
 62
     7
 10
362.9999999999996
 20
769.4801260329433
 30
0.0
 11
352.00000000000023
 21
769.4801260329433
 31
0.0
  0
ARC
  5
1AC
  8
DATA
  6
CONTINUOUS
 62
     7
 10
348.2308163265306
 20
771.62910562477964
 30
0.0
 40
4.3387623639094164
 50
287.00900813209682
 51
330.31060837608419
  0
ARC
  5
1AD
  8
DATA
  6
CONTINUOUS
 62
     7
 10
366.7691836734694
 20
771.62910562477964
 30
0.0
 40
4.3387623639096384
 50
209.6893916239147
 51
252.99099186790241
  0
CIRCLE
  5
1AE
  8
DATA
  6
CONTINUOUS
 62
     7
 10
357.50894665581683
 20
758.43142402473211
 30
0.0
 40
1.175000000000068
  0
POLYLINE
  5
1AF
  8
DATA
  6
CONTINUOUS
 62
     7
 66
     1
 10
0.0
 20
0.0
 30
0.0
 70
     1
  0
VERTEX
  5
4E6
  8
DATA
  6
CONTINUOUS
 62
     7
 10
357.50894665581683
 20
755.73142402473241
 30
0.0
  0
VERTEX
  5
4E7
  8
DATA
  6
CONTINUOUS
 62
     7
 10
359.84721524603481
 20
757.08142402473209
 30
0.0
  0
VERTEX
  5
4E8
  8
DATA
  6
CONTINUOUS
 62
     7
 10
359.84721524603481
 20
759.7814240247319
 30
0.0
  0
VERTEX
  5
4E9
  8
DATA
  6
CONTINUOUS
 62
     7
 10
357.50894665581683
 20
761.13142402473193
 30
0.0
  0
VERTEX
  5
4EA
  8
DATA
  6
CONTINUOUS
 62
     7
 10
355.17067806559879
 20
759.7814240247319
 30
0.0
  0
VERTEX
  5
4EB
  8
DATA
  6
CONTINUOUS
 62
     7
 10
355.17067806559879
 20
757.08142402473209
 30
0.0
  0
SEQEND
  5
4EC
  8
DATA
  6
CONTINUOUS
 62
     7
  0
POLYLINE
  5
1B8
  8
DATA
  6
CONTINUOUS
 62
     7
 66
     1
 10
0.0
 20
0.0
 30
0.0
  0
VERTEX
  5
4ED
  8
DATA
  6
CONTINUOUS
 62
     7
 10
395.5
 20
767.4801260329433
 30
0.0
  0
VERTEX
  5
4EE
  8
DATA
  6
CONTINUOUS
 62
     7
 10
395.5
 20
763.4801260329433
 30
0.0
  0
VERTEX
  5
4EF
  8
DATA
  6
CONTINUOUS
 62
     7
 10
411.5
 20
763.4801260329433
 30
0.0
  0
VERTEX
  5
4F0
  8
DATA
  6
CONTINUOUS
 62
     7
 10
411.5
 20
767.4801260329433
 30
0.0
  0
SEQEND
  5
4F1
  8
DATA
  6
CONTINUOUS
 62
     7
  0
LINE
  5
1BF
  8
DATA
  6
CONTINUOUS
 62
     7
 10
408.9999999999996
 20
769.4801260329433
 30
0.0
 11
398.00000000000023
 21
769.4801260329433
 31
0.0
  0
ARC
  5
1C0
  8
DATA
  6
CONTINUOUS
 62
     7
 10
394.2308163265306
 20
771.62910562477964
 30
0.0
 40
4.3387623639094164
 50
287.00900813209682
 51
330.31060837608419
  0
ARC
  5
1C1
  8
DATA
  6
CONTINUOUS
 62
     7
 10
412.7691836734694
 20
771.62910562477964
 30
0.0
 40
4.3387623639096384
 50
209.6893916239147
 51
252.99099186790241
  0
CIRCLE
  5
1C2
  8
DATA
  6
CONTINUOUS
 62
     7
 10
403.50894665581683
 20
758.43142402473211
 30
0.0
 40
1.175000000000068
  0
POLYLINE
  5
1C3
  8
DATA
  6
CONTINUOUS
 62
     7
 66
     1
 10
0.0
 20
0.0
 30
0.0
 70
     1
  0
VERTEX
  5
4F2
  8
DATA
  6
CONTINUOUS
 62
     7
 10
403.50894665581683
 20
755.73142402473241
 30
0.0
  0
VERTEX
  5
4F3
  8
DATA
  6
CONTINUOUS
 62
     7
 10
405.84721524603469
 20
757.08142402473209
 30
0.0
  0
VERTEX
  5
4F4
  8
DATA
  6
CONTINUOUS
 62
     7
 10
405.84721524603469
 20
759.7814240247319
 30
0.0
  0
VERTEX
  5
4F5
  8
DATA
  6
CONTINUOUS
 62
     7
 10
403.50894665581683
 20
761.13142402473193
 30
0.0
  0
VERTEX
  5
4F6
  8
DATA
  6
CONTINUOUS
 62
     7
 10
401.17067806559879
 20
759.7814240247319
 30
0.0
  0
VERTEX
  5
4F7
  8
DATA
  6
CONTINUOUS
 62
     7
 10
401.17067806559879
 20
757.08142402473209
 30
0.0
  0
SEQEND
  5
4F8
  8
DATA
  6
CONTINUOUS
 62
     7
  0
POLYLINE
  5
1CC
  8
DATA
  6
CONTINUOUS
 62
     7
 66
     1
 10
0.0
 20
0.0
 30
0.0
  0
VERTEX
  5
4F9
  8
DATA
  6
CONTINUOUS
 62
     7
 10
441.5
 20
767.4801260329433
 30
0.0
  0
VERTEX
  5
4FA
  8
DATA
  6
CONTINUOUS
 62
     7
 10
441.5
 20
763.4801260329433
 30
0.0
  0
VERTEX
  5
4FB
  8
DATA
  6
CONTINUOUS
 62
     7
 10
457.50000000000011
 20
763.4801260329433
 30
0.0
  0
VERTEX
  5
4FC
  8
DATA
  6
CONTINUOUS
 62
     7
 10
457.50000000000011
 20
767.4801260329433
 30
0.0
  0
SEQEND
  5
4FD
  8
DATA
  6
CONTINUOUS
 62
     7
  0
LINE
  5
1D3
  8
DATA
  6
CONTINUOUS
 62
     7
 10
454.9999999999996
 20
769.4801260329433
 30
0.0
 11
444.00000000000023
 21
769.4801260329433
 31
0.0
  0
ARC
  5
1D4
  8
DATA
  6
CONTINUOUS
 62
     7
 10
440.23081632653049
 20
771.62910562477964
 30
0.0
 40
4.3387623639094164
 50
287.00900813209682
 51
330.31060837608419
  0
ARC
  5
1D5
  8
DATA
  6
CONTINUOUS
 62
     7
 10
458.7691836734694
 20
771.62910562477964
 30
0.0
 40
4.3387623639096384
 50
209.6893916239147
 51
252.99099186790241
  0
CIRCLE
  5
1D6
  8
DATA
  6
CONTINUOUS
 62
     7
 10
449.50894665581683
 20
758.43142402473211
 30
0.0
 40
1.175000000000068
  0
POLYLINE
  5
1D7
  8
DATA
  6
CONTINUOUS
 62
     7
 66
     1
 10
0.0
 20
0.0
 30
0.0
 70
     1
  0
VERTEX
  5
4FE
  8
DATA
  6
CONTINUOUS
 62
     7
 10
449.50894665581683
 20
755.73142402473241
 30
0.0
  0
VERTEX
  5
4FF
  8
DATA
  6
CONTINUOUS
 62
     7
 10
451.84721524603469
 20
757.08142402473209
 30
0.0
  0
VERTEX
  5
500
  8
DATA
  6
CONTINUOUS
 62
     7
 10
451.84721524603469
 20
759.7814240247319
 30
0.0
  0
VERTEX
  5
501
  8
DATA
  6
CONTINUOUS
 62
     7
 10
449.50894665581683
 20
761.13142402473193
 30
0.0
  0
VERTEX
  5
502
  8
DATA
  6
CONTINUOUS
 62
     7
 10
447.17067806559879
 20
759.7814240247319
 30
0.0
  0
VERTEX
  5
503
  8
DATA
  6
CONTINUOUS
 62
     7
 10
447.17067806559879
 20
757.08142402473209
 30
0.0
  0
SEQEND
  5
504
  8
DATA
  6
CONTINUOUS
 62
     7
  0
POLYLINE
  5
1E0
  8
DATA
  6
CONTINUOUS
 62
     7
 66
     1
 10
0.0
 20
0.0
 30
0.0
  0
VERTEX
  5
505
  8
DATA
  6
CONTINUOUS
 62
     7
 10
487.5
 20
767.4801260329433
 30
0.0
  0
VERTEX
  5
506
  8
DATA
  6
CONTINUOUS
 62
     7
 10
487.5
 20
763.4801260329433
 30
0.0
  0
VERTEX
  5
507
  8
DATA
  6
CONTINUOUS
 62
     7
 10
503.50000000000011
 20
763.4801260329433
 30
0.0
  0
VERTEX
  5
508
  8
DATA
  6
CONTINUOUS
 62
     7
 10
503.50000000000011
 20
767.4801260329433
 30
0.0
  0
SEQEND
  5
509
  8
DATA
  6
CONTINUOUS
 62
     7
  0
LINE
  5
1E7
  8
DATA
  6
CONTINUOUS
 62
     7
 10
500.9999999999996
 20
769.4801260329433
 30
0.0
 11
490.00000000000023
 21
769.4801260329433
 31
0.0
  0
ARC
  5
1E8
  8
DATA
  6
CONTINUOUS
 62
     7
 10
486.23081632653049
 20
771.62910562477964
 30
0.0
 40
4.3387623639094164
 50
287.00900813209682
 51
330.31060837608419
  0
ARC
  5
1E9
  8
DATA
  6
CONTINUOUS
 62
     7
 10
504.7691836734694
 20
771.62910562477964
 30
0.0
 40
4.3387623639096384
 50
209.6893916239147
 51
252.99099186790241
  0
CIRCLE
  5
1EA
  8
DATA
  6
CONTINUOUS
 62
     7
 10
495.50894665581683
 20
758.43142402473211
 30
0.0
 40
1.175000000000068
  0
POLYLINE
  5
1EB
  8
DATA
  6
CONTINUOUS
 62
     7
 66
     1
 10
0.0
 20
0.0
 30
0.0
 70
     1
  0
VERTEX
  5
50A
  8
DATA
  6
CONTINUOUS
 62
     7
 10
495.50894665581683
 20
755.73142402473241
 30
0.0
  0
VERTEX
  5
50B
  8
DATA
  6
CONTINUOUS
 62
     7
 10
497.84721524603469
 20
757.08142402473209
 30
0.0
  0
VERTEX
  5
50C
  8
DATA
  6
CONTINUOUS
 62
     7
 10
497.84721524603469
 20
759.7814240247319
 30
0.0
  0
VERTEX
  5
50D
  8
DATA
  6
CONTINUOUS
 62
     7
 10
495.50894665581683
 20
761.13142402473193
 30
0.0
  0
VERTEX
  5
50E
  8
DATA
  6
CONTINUOUS
 62
     7
 10
493.17067806559879
 20
759.7814240247319
 30
0.0
  0
VERTEX
  5
50F
  8
DATA
  6
CONTINUOUS
 62
     7
 10
493.17067806559879
 20
757.08142402473209
 30
0.0
  0
SEQEND
  5
510
  8
DATA
  6
CONTINUOUS
 62
     7
  0
POLYLINE
  5
1F4
  8
DATA
  6
CONTINUOUS
 62
     7
 66
     1
 10
0.0
 20
0.0
 30
0.0
  0
VERTEX
  5
511
  8
DATA
  6
CONTINUOUS
 62
     7
 10
522.5
 20
767.4801260329433
 30
0.0
  0
VERTEX
  5
512
  8
DATA
  6
CONTINUOUS
 62
     7
 10
522.5
 20
763.4801260329433
 30
0.0
  0
VERTEX
  5
513
  8
DATA
  6
CONTINUOUS
 62
     7
 10
538.49999999999989
 20
763.4801260329433
 30
0.0
  0
VERTEX
  5
514
  8
DATA
  6
CONTINUOUS
 62
     7
 10
538.49999999999989
 20
767.4801260329433
 30
0.0
  0
SEQEND
  5
515
  8
DATA
  6
CONTINUOUS
 62
     7
  0
LINE
  5
1FB
  8
DATA
  6
CONTINUOUS
 62
     7
 10
535.99999999999955
 20
769.4801260329433
 30
0.0
 11
525.0
 21
769.4801260329433
 31
0.0
  0
ARC
  5
1FC
  8
DATA
  6
CONTINUOUS
 62
     7
 10
521.23081632653054
 20
771.62910562477964
 30
0.0
 40
4.3387623639094164
 50
287.00900813209682
 51
330.31060837608419
  0
ARC
  5
1FD
  8
DATA
  6
CONTINUOUS
 62
     7
 10
539.76918367346923
 20
771.62910562477964
 30
0.0
 40
4.3387623639096384
 50
209.6893916239147
 51
252.99099186790241
  0
TEXT
  5
1FE
  8
DATA
 62
     7
 10
535.58976602612313
 20
775.91925270223146
 30
0.0
 40
2.7147352430555549
  1
Out 1
 50
180.0
 41
0.7
 11
535.58976602612313
 21
773.20451745917592
 31
0.0
 73
     3
1001
ACADANNOTATIVE
1000
AnnotativeData
1002
{
1070
     1
1070
     0
1002
}
  0
CIRCLE
  5
1FF
  8
DATA
  6
CONTINUOUS
 62
     7
 10
530.50894665581666
 20
758.43142402473211
 30
0.0
 40
1.175000000000068
  0
POLYLINE
  5
200
  8
DATA
  6
CONTINUOUS
 62
     7
 66
     1
 10
0.0
 20
0.0
 30
0.0
 70
     1
  0
VERTEX
  5
516
  8
DATA
  6
CONTINUOUS
 62
     7
 10
530.50894665581666
 20
755.73142402473241
 30
0.0
  0
VERTEX
  5
517
  8
DATA
  6
CONTINUOUS
 62
     7
 10
532.84721524603458
 20
757.08142402473209
 30
0.0
  0
VERTEX
  5
518
  8
DATA
  6
CONTINUOUS
 62
     7
 10
532.84721524603458
 20
759.7814240247319
 30
0.0
  0
VERTEX
  5
519
  8
DATA
  6
CONTINUOUS
 62
     7
 10
530.50894665581666
 20
761.13142402473193
 30
0.0
  0
VERTEX
  5
51A
  8
DATA
  6
CONTINUOUS
 62
     7
 10
528.17067806559885
 20
759.7814240247319
 30
0.0
  0
VERTEX
  5
51B
  8
DATA
  6
CONTINUOUS
 62
     7
 10
528.17067806559885
 20
757.08142402473209
 30
0.0
  0
SEQEND
  5
51C
  8
DATA
  6
CONTINUOUS
 62
     7
  0
CIRCLE
  5
209
  8
DATA
  6
CONTINUOUS
 62
     7
 10
571.0
 20
763.33089711068806
 30
0.0
 40
1.1750000000000109
  0
POLYLINE
  5
20A
  8
DATA
  6
CONTINUOUS
 62
     7
 66
     1
 10
0.0
 20
0.0
 30
0.0
 70
     1
  0
VERTEX
  5
51D
  8
DATA
  6
CONTINUOUS
 62
     7
 10
571.0
 20
760.63089711068835
 30
0.0
  0
VERTEX
  5
51E
  8
DATA
  6
CONTINUOUS
 62
     7
 10
573.33826859021747
 20
761.98089711068826
 30
0.0
  0
VERTEX
  5
51F
  8
DATA
  6
CONTINUOUS
 62
     7
 10
573.33826859021747
 20
764.68089711068785
 30
0.0
  0
VERTEX
  5
520
  8
DATA
  6
CONTINUOUS
 62
     7
 10
571.0
 20
766.03089711068787
 30
0.0
  0
VERTEX
  5
521
  8
DATA
  6
CONTINUOUS
 62
     7
 10
568.66173140978196
 20
764.68089711068785
 30
0.0
  0
VERTEX
  5
522
  8
DATA
  6
CONTINUOUS
 62
     7
 10
568.66173140978196
 20
761.98089711068826
 30
0.0
  0
SEQEND
  5
523
  8
DATA
  6
CONTINUOUS
 62
     7
  0
CIRCLE
  5
213
  8
DATA
  6
CONTINUOUS
 62
     7
 10
596.0
 20
763.33089711068806
 30
0.0
 40
1.175000000000068
  0
POLYLINE
  5
214
  8
DATA
  6
CONTINUOUS
 62
     7
 66
     1
 10
0.0
 20
0.0
 30
0.0
 70
     1
  0
VERTEX
  5
524
  8
DATA
  6
CONTINUOUS
 62
     7
 10
596.0
 20
760.63089711068835
 30
0.0
  0
VERTEX
  5
525
  8
DATA
  6
CONTINUOUS
 62
     7
 10
598.33826859021792
 20
761.98089711068826
 30
0.0
  0
VERTEX
  5
526
  8
DATA
  6
CONTINUOUS
 62
     7
 10
598.33826859021792
 20
764.68089711068785
 30
0.0
  0
VERTEX
  5
527
  8
DATA
  6
CONTINUOUS
 62
     7
 10
596.0
 20
766.03089711068787
 30
0.0
  0
VERTEX
  5
528
  8
DATA
  6
CONTINUOUS
 62
     7
 10
593.66173140978196
 20
764.68089711068785
 30
0.0
  0
VERTEX
  5
529
  8
DATA
  6
CONTINUOUS
 62
     7
 10
593.66173140978196
 20
761.98089711068826
 30
0.0
  0
SEQEND
  5
52A
  8
DATA
  6
CONTINUOUS
 62
     7
  0
LINE
  5
21D
  8
DATA
  6
CONTINUOUS
 62
     7
 10
577.89823678981145
 20
767.33089711068806
 30
0.0
 11
589.10176321018855
 21
767.33089711068806
 31
0.0
  0
LINE
  5
21E
  8
DATA
  6
CONTINUOUS
 62
     7
 10
589.91426321018855
 20
759.33089711068828
 30
0.0
 11
577.08573678981145
 21
759.33089711068828
 31
0.0
  0
LINE
  5
21F
  8
DATA
  6
CONTINUOUS
 62
     7
 10
590.48498005744
 20
766.14702474307103
 30
0.0
 11
591.29748005743988
 21
760.94702474307144
 31
0.0
  0
LINE
  5
220
  8
DATA
  6
CONTINUOUS
 62
     7
 10
575.70251994255966
 20
760.94702474307144
 30
0.0
 11
576.51501994255977
 21
766.14702474307103
 31
0.0
  0
CIRCLE
  5
221
  8
DATA
  6
CONTINUOUS
 62
     7
 10
583.52662977047476
 20
761.6945889395347
 30
0.0
 40
0.5
  0
ARC
  5
222
  8
DATA
  6
CONTINUOUS
 62
     7
 10
589.91426321018855
 20
760.73089711068826
 30
0.0
 40
1.399999999999977
 50
270.0
 51
8.8806591505205574
  0
ARC
  5
223
  8
DATA
  6
CONTINUOUS
 62
     7
 10
577.08573678981145
 20
760.73089711068826
 30
0.0
 40
1.400000000000019
 50
171.1193408494795
 51
270.0
  0
ARC
  5
224
  8
DATA
  6
CONTINUOUS
 62
     7
 10
589.10176321018855
 20
765.93089711068785
 30
0.0
 40
1.4000000000000281
 50
8.8806591505228312
 51
90.0
  0
ARC
  5
225
  8
DATA
  6
CONTINUOUS
 62
     7
 10
577.89823678981145
 20
765.93089711068785
 30
0.0
 40
1.4000000000001469
 50
90.0
 51
171.11934084947711
  0
LINE
  5
226
  8
DATA
  6
CONTINUOUS
 62
     7
 10
576.34119606934564
 20
769.33089711068817
 30
0.0
 11
590.65880393065368
 21
769.33089711068817
 31
0.0
  0
LINE
  5
227
  8
DATA
  6
CONTINUOUS
 62
     7
 10
591.67764565125026
 20
757.33089711068817
 30
0.0
 11
575.32235434874917
 21
757.33089711068817
 31
0.0
  0
LINE
  5
228
  8
DATA
  6
CONTINUOUS
 62
     7
 10
593.64949087839375
 20
759.66530165639927
 30
0.0
 11
592.2362801123686
 21
767.99842074725689
 31
0.0
  0
LINE
  5
229
  8
DATA
  6
CONTINUOUS
 62
     7
 10
573.35050912160614
 20
759.66530165639927
 30
0.0
 11
574.76371988763117
 21
767.99842074725689
 31
0.0
  0
ARC
  5
22A
  8
DATA
  6
CONTINUOUS
 62
     7
 10
591.67764565125026
 20
759.33089711068828
 30
0.0
 40
2.000000000000056
 50
270.0
 51
9.6251929436203341
  0
ARC
  5
22B
  8
DATA
  6
CONTINUOUS
 62
     7
 10
575.32235434874917
 20
759.33089711068828
 30
0.0
 40
1.999999999999958
 50
170.37480705637881
 51
270.0
  0
ARC
  5
22C
  8
DATA
  6
CONTINUOUS
 62
     7
 10
590.65880393065368
 20
767.73089711068815
 30
0.0
 40
1.60000000000017
 50
9.6251929436203323
 51
89.999999999995936
  0
ARC
  5
22D
  8
DATA
  6
CONTINUOUS
 62
     7
 10
576.34119606934564
 20
767.73089711068815
 30
0.0
 40
1.6000000000000789
 50
90.0
 51
170.3748070563783
  0
CIRCLE
  5
22E
  8
DATA
  6
CONTINUOUS
 62
     7
 10
586.02662977047476
 20
761.6945889395347
 30
0.0
 40
0.5
  0
CIRCLE
  5
22F
  8
DATA
  6
CONTINUOUS
 62
     7
 10
588.52662977047476
 20
761.6945889395347
 30
0.0
 40
0.5
  0
CIRCLE
  5
230
  8
DATA
  6
CONTINUOUS
 62
     7
 10
581.02662977047476
 20
761.6945889395347
 30
0.0
 40
0.5
  0
CIRCLE
  5
231
  8
DATA
  6
CONTINUOUS
 62
     7
 10
578.52662977047476
 20
761.6945889395347
 30
0.0
 40
0.5
  0
CIRCLE
  5
232
  8
DATA
  6
CONTINUOUS
 62
     7
 10
584.72214094654589
 20
765.31310935829686
 30
0.0
 40
0.5
  0
CIRCLE
  5
233
  8
DATA
  6
CONTINUOUS
 62
     7
 10
587.22214094654601
 20
765.31310935829686
 30
0.0
 40
0.5
  0
CIRCLE
  5
234
  8
DATA
  6
CONTINUOUS
 62
     7
 10
582.22214094654601
 20
765.31310935829686
 30
0.0
 40
0.5
  0
CIRCLE
  5
235
  8
DATA
  6
CONTINUOUS
 62
     7
 10
579.72214094654601
 20
765.31310935829686
 30
0.0
 40
0.5
  0
TEXT
  5
236
  8
DATA
 62
     7
 10
588.45742068824336
 20
776.40193042835642
 30
0.0
 40
2.693359375
  1
RS-232
 50
180.0
 41
0.7
 11
588.45742068824336
 21
773.70857105335631
 31
0.0
 73
     3
1001
ACADANNOTATIVE
1000
AnnotativeData
1002
{
1070
     1
1070
     0
1002
}
  0
POLYLINE
  5
237
  8
DATA
  6
CONTINUOUS
 62
     7
 66
     1
 10
0.0
 20
0.0
 30
0.0
 70
     1
  0
VERTEX
  5
52B
  8
DATA
  6
CONTINUOUS
 62
     7
 10
552.5
 20
768.15938210282695
 30
0.0
  0
VERTEX
  5
52C
  8
DATA
  6
CONTINUOUS
 62
     7
 10
560.5
 20
768.15938210282695
 30
0.0
  0
VERTEX
  5
52D
  8
DATA
  6
CONTINUOUS
 62
     7
 10
560.5
 20
765.20938210282702
 30
0.0
  0
VERTEX
  5
52E
  8
DATA
  6
CONTINUOUS
 62
     7
 10
552.5
 20
765.20938210282702
 30
0.0
  0
SEQEND
  5
52F
  8
DATA
  6
CONTINUOUS
 62
     7
  0
TEXT
  5
23E
  8
DATA
 62
     7
 10
500.58976602612307
 20
775.91925270223146
 30
0.0
 40
2.7147352430555549
  1
Out 2
 50
180.0
 41
0.7
 11
500.58976602612307
 21
773.20451745917592
 31
0.0
 73
     3
1001
ACADANNOTATIVE
1000
AnnotativeData
1002
{
1070
     1
1070
     0
1002
}
  0
TEXT
  5
23F
  8
DATA
 62
     7
 10
454.58976602612307
 20
775.91925270223146
 30
0.0
 40
2.7147352430555549
  1
Out 3
 50
180.0
 41
0.7
 11
454.58976602612307
 21
773.20451745917592
 31
0.0
 73
     3
1001
ACADANNOTATIVE
1000
AnnotativeData
1002
{
1070
     1
1070
     0
1002
}
  0
TEXT
  5
240
  8
DATA
 62
     7
 10
408.58976602612307
 20
775.91925270223146
 30
0.0
 40
2.7147352430555549
  1
Out 4
 50
180.0
 41
0.7
 11
408.58976602612307
 21
773.20451745917592
 31
0.0
 73
     3
1001
ACADANNOTATIVE
1000
AnnotativeData
1002
{
1070
     1
1070
     0
1002
}
  0
TEXT
  5
241
  8
DATA
 62
     7
 10
362.02200139776221
 20
775.91925270223146
 30
0.0
 40
2.7147352430555549
  1
In 1
 50
180.0
 41
0.7
 11
362.02200139776221
 21
773.20451745917592
 31
0.0
 73
     3
1001
ACADANNOTATIVE
1000
AnnotativeData
1002
{
1070
     1
1070
     0
1002
}
  0
TEXT
  5
242
  8
DATA
 62
     7
 10
316.02200139776221
 20
775.91925270223146
 30
0.0
 40
2.7147352430555549
  1
In 2
 50
180.0
 41
0.7
 11
316.02200139776221
 21
773.20451745917592
 31
0.0
 73
     3
1001
ACADANNOTATIVE
1000
AnnotativeData
1002
{
1070
     1
1070
     0
1002
}
  0
TEXT
  5
243
  8
DATA
 62
     7
 10
270.02200139776221
 20
775.91925270223146
 30
0.0
 40
2.7147352430555549
  1
In 3
 50
180.0
 41
0.7
 11
270.02200139776221
 21
773.20451745917592
 31
0.0
 73
     3
1001
ACADANNOTATIVE
1000
AnnotativeData
1002
{
1070
     1
1070
     0
1002
}
  0
TEXT
  5
244
  8
DATA
 62
     7
 10
235.02200139776221
 20
775.91925270223146
 30
0.0
 40
2.7147352430555549
  1
In 4
 50
180.0
 41
0.7
 11
235.02200139776221
 21
773.20451745917592
 31
0.0
 73
     3
1001
ACADANNOTATIVE
1000
AnnotativeData
1002
{
1070
     1
1070
     0
1002
}
  0
TEXT
  5
245
  8
DATA
 62
     7
 10
194.41886235900409
 20
775.91343452799515
 30
0.0
 40
2.4432617187500001
  1
Ext-IR
 50
180.0
 41
0.7
 11
194.41886235900409
 21
773.47017280924513
 31
0.0
 73
     3
1001
ACADANNOTATIVE
1000
AnnotativeData
1002
{
1070
     1
1070
     0
1002
}
  0
CIRCLE
  5
246
  8
DATA
  6
CONTINUOUS
 62
     7
 10
189.5
 20
763.49999999999989
 30
0.0
 40
3.0
  0
CIRCLE
  5
247
  8
DATA
  6
CONTINUOUS
 62
     7
 10
189.5
 20
763.49999999999989
 30
0.0
 40
1.700000000000045
  0
CIRCLE
  5
248
  8
DATA
  6
CONTINUOUS
 62
     7
 10
203.5
 20
763.49999999999989
 30
0.0
 40
3.8999999999999759
  0
CIRCLE
  5
249
  8
DATA
  6
CONTINUOUS
 62
     7
 10
203.5
 20
763.49999999999989
 30
0.0
 40
2.75
  0
CIRCLE
  5
24A
  8
DATA
  6
CONTINUOUS
 62
     7
 10
203.5
 20
763.49999999999989
 30
0.0
 40
0.5
  0
TEXT
  5
24B
  8
DATA
 62
     7
 10
208.06143671925079
 20
775.91343452799515
 30
0.0
 40
2.4432617187500001
  1
5V DC
 50
180.0
 41
0.7
 11
208.06143671925079
 21
773.47017280924513
 31
0.0
 73
     3
1001
ACADANNOTATIVE
1000
AnnotativeData
1002
{
1070
     1
1070
     0
1002
}
  0
POLYLINE
  5
24C
  8
DATA
  6
CONTINUOUS
 62
     7
 66
     1
 10
0.0
 20
0.0
 30
0.0
 70
     1
  0
VERTEX
  5
530
  8
DATA
  6
CONTINUOUS
 62
     7
 10
557.5
 20
767.68438210282704
 30
0.0
  0
VERTEX
  5
531
  8
DATA
  6
CONTINUOUS
 62
     7
 10
559.49999999999989
 20
767.68438210282704
 30
0.0
  0
VERTEX
  5
532
  8
DATA
  6
CONTINUOUS
 62
     7
 10
559.49999999999989
 20
765.68438210282704
 30
0.0
  0
VERTEX
  5
533
  8
DATA
  6
CONTINUOUS
 62
     7
 10
557.5
 20
765.68438210282704
 30
0.0
  0
SEQEND
  5
534
  8
DATA
  6
CONTINUOUS
 62
     7
  0
TEXT
  5
253
  8
DATA
 62
     7
 10
559.47488948541809
 20
763.53304864331722
 30
0.0
 40
2.4240234374999998
  1
EDID
 50
180.0
 41
0.7
 11
559.47488948541809
 21
761.10902520581715
 31
0.0
 73
     3
1001
ACADANNOTATIVE
1000
AnnotativeData
1002
{
1070
     1
1070
     0
1002
}
  0
TEXT
  5
254
  8
DATA
 62
     7
 10
562.42511059140577
 20
772.2939557788028
 30
0.0
 40
2.4240234374999998
  1
Ext
 50
180.0
 41
0.7
 11
562.42511059140577
 21
769.86993234130284
 31
0.0
 73
     3
1001
ACADANNOTATIVE
1000
AnnotativeData
1002
{
1070
     1
1070
     0
1002
}
  0
TEXT
  5
255
  8
DATA
 62
     7
 10
555.1239381287354
 20
772.2939557788028
 30
0.0
 40
2.4240234374999998
  1
Int
 50
180.0
 41
0.7
 11
555.1239381287354
 21
769.86993234130284
 31
0.0
 73
     3
1001
ACADANNOTATIVE
1000
AnnotativeData
1002
{
1070
     1
1070
     0
1002
}
  0
LINE
  5
256
  8
DATA
  6
CONTINUOUS
 62
     7
 10
228.15894665581681
 20
637.5
 30
0.0
 11
228.15894665581681
 21
642.0
 31
0.0
  0
LINE
  5
257
  8
DATA
  6
CONTINUOUS
 62
     7
 10
232.85894665581691
 20
642.0
 30
0.0
 11
232.85894665581691
 21
637.5
 31
0.0
  0
LINE
  5
258
  8
DATA
  6
CONTINUOUS
 62
     7
 10
228.15894665581681
 20
642.0
 30
0.0
 11
232.85894665581691
 21
642.0
 31
0.0
  0
LINE
  5
259
  8
DATA
  6
CONTINUOUS
 62
     7
 10
263.15894665581681
 20
637.5
 30
0.0
 11
263.15894665581681
 21
642.0
 31
0.0
  0
LINE
  5
25A
  8
DATA
  6
CONTINUOUS
 62
     7
 10
267.85894665581691
 20
642.0
 30
0.0
 11
267.85894665581691
 21
637.5
 31
0.0
  0
LINE
  5
25B
  8
DATA
  6
CONTINUOUS
 62
     7
 10
263.15894665581681
 20
642.0
 30
0.0
 11
267.85894665581691
 21
642.0
 31
0.0
  0
LINE
  5
25C
  8
DATA
  6
CONTINUOUS
 62
     7
 10
309.15894665581681
 20
637.5
 30
0.0
 11
309.15894665581681
 21
642.0
 31
0.0
  0
LINE
  5
25D
  8
DATA
  6
CONTINUOUS
 62
     7
 10
313.85894665581679
 20
642.0
 30
0.0
 11
313.85894665581679
 21
637.5
 31
0.0
  0
LINE
  5
25E
  8
DATA
  6
CONTINUOUS
 62
     7
 10
309.15894665581681
 20
642.0
 30
0.0
 11
313.85894665581679
 21
642.0
 31
0.0
  0
LINE
  5
25F
  8
DATA
  6
CONTINUOUS
 62
     7
 10
355.15894665581681
 20
637.5
 30
0.0
 11
355.15894665581681
 21
642.0
 31
0.0
  0
LINE
  5
260
  8
DATA
  6
CONTINUOUS
 62
     7
 10
359.85894665581679
 20
642.0
 30
0.0
 11
359.85894665581679
 21
637.5
 31
0.0
  0
LINE
  5
261
  8
DATA
  6
CONTINUOUS
 62
     7
 10
355.15894665581681
 20
642.0
 30
0.0
 11
359.85894665581679
 21
642.0
 31
0.0
  0
LINE
  5
262
  8
DATA
  6
CONTINUOUS
 62
     7
 10
401.15894665581669
 20
637.5
 30
0.0
 11
401.15894665581669
 21
642.0
 31
0.0
  0
LINE
  5
263
  8
DATA
  6
CONTINUOUS
 62
     7
 10
405.85894665581679
 20
642.0
 30
0.0
 11
405.85894665581679
 21
637.5
 31
0.0
  0
LINE
  5
264
  8
DATA
  6
CONTINUOUS
 62
     7
 10
401.15894665581669
 20
642.0
 30
0.0
 11
405.85894665581679
 21
642.0
 31
0.0
  0
LINE
  5
265
  8
DATA
  6
CONTINUOUS
 62
     7
 10
447.15894665581669
 20
637.5
 30
0.0
 11
447.15894665581669
 21
642.0
 31
0.0
  0
LINE
  5
266
  8
DATA
  6
CONTINUOUS
 62
     7
 10
451.85894665581679
 20
642.0
 30
0.0
 11
451.85894665581679
 21
637.5
 31
0.0
  0
LINE
  5
267
  8
DATA
  6
CONTINUOUS
 62
     7
 10
447.15894665581669
 20
642.0
 30
0.0
 11
451.85894665581679
 21
642.0
 31
0.0
  0
LINE
  5
268
  8
DATA
  6
CONTINUOUS
 62
     7
 10
493.15894665581669
 20
637.5
 30
0.0
 11
493.15894665581669
 21
642.0
 31
0.0
  0
LINE
  5
269
  8
DATA
  6
CONTINUOUS
 62
     7
 10
497.85894665581679
 20
642.0
 30
0.0
 11
497.85894665581679
 21
637.5
 31
0.0
  0
LINE
  5
26A
  8
DATA
  6
CONTINUOUS
 62
     7
 10
493.15894665581669
 20
642.0
 30
0.0
 11
497.85894665581679
 21
642.0
 31
0.0
  0
LINE
  5
26B
  8
DATA
  6
CONTINUOUS
 62
     7
 10
528.15894665581675
 20
637.5
 30
0.0
 11
528.15894665581675
 21
642.0
 31
0.0
  0
LINE
  5
26C
  8
DATA
  6
CONTINUOUS
 62
     7
 10
532.85894665581691
 20
642.0
 30
0.0
 11
532.85894665581691
 21
637.5
 31
0.0
  0
LINE
  5
26D
  8
DATA
  6
CONTINUOUS
 62
     7
 10
528.15894665581675
 20
642.0
 30
0.0
 11
532.85894665581691
 21
642.0
 31
0.0
  0
POLYLINE
  5
26E
  8
DATA
  6
CONTINUOUS
 62
     7
 66
     1
 10
0.0
 20
0.0
 30
0.0
 70
     1
  0
VERTEX
  5
535
  8
DATA
  6
CONTINUOUS
 62
     7
 10
198.75
 20
760.75758622134913
 30
0.0
  0
VERTEX
  5
536
  8
DATA
  6
CONTINUOUS
 62
     7
 10
203.5
 20
758.01517244269871
 30
0.0
  0
VERTEX
  5
537
  8
DATA
  6
CONTINUOUS
 62
     7
 10
208.25
 20
760.75758622134913
 30
0.0
  0
VERTEX
  5
538
  8
DATA
  6
CONTINUOUS
 62
     7
 10
208.25
 20
766.24241377865076
 30
0.0
  0
VERTEX
  5
539
  8
DATA
  6
CONTINUOUS
 62
     7
 10
203.5
 20
768.98482755730117
 30
0.0
  0
VERTEX
  5
53A
  8
DATA
  6
CONTINUOUS
 62
     7
 10
198.75
 20
766.24241377865076
 30
0.0
  0
SEQEND
  5
53B
  8
DATA
  6
CONTINUOUS
 62
     7
  0
LINE
  5
277
  8
DATA
  6
CONTINUOUS
 62
     7
 10
199.59999999999999
 20
643.5
 30
0.0
 11
207.40000000000001
 21
643.5
 31
0.0
  0
LINE
  5
278
  8
DATA
  6
CONTINUOUS
 62
     7
 10
199.59999999999999
 20
643.5
 30
0.0
 11
199.59999999999999
 21
638.79999999999995
 31
0.0
  0
LINE
  5
279
  8
DATA
  6
CONTINUOUS
 62
     7
 10
207.40000000000001
 20
643.5
 30
0.0
 11
207.40000000000001
 21
638.79999999999995
 31
0.0
  0
LINE
  5
27A
  8
DATA
  6
CONTINUOUS
 62
     7
 10
198.75
 20
638.79999999999995
 30
0.0
 11
198.75
 21
637.5
 31
0.0
  0
LINE
  5
27B
  8
DATA
  6
CONTINUOUS
 62
     7
 10
208.25
 20
638.79999999999995
 30
0.0
 11
208.25
 21
637.5
 31
0.0
  0
LINE
  5
27C
  8
DATA
  6
CONTINUOUS
 62
     7
 10
198.75
 20
638.79999999999995
 30
0.0
 11
208.25
 21
638.79999999999995
 31
0.0
  0
LINE
  5
27D
  8
DATA
  6
CONTINUOUS
 62
     7
 10
203.5
 20
638.79999999999995
 30
0.0
 11
203.5
 21
637.5
 31
0.0
  0
LINE
  5
27E
  8
DATA
  6
CONTINUOUS
 62
     7
 10
199.59999999999999
 20
638.79999999999995
 30
0.0
 11
207.40000000000001
 21
639.22000000000003
 31
0.0
  0
LINE
  5
27F
  8
DATA
  6
CONTINUOUS
 62
     7
 10
199.59999999999999
 20
640.60000000000002
 30
0.0
 11
207.40000000000001
 21
641.01999999999987
 31
0.0
  0
LINE
  5
280
  8
DATA
  6
CONTINUOUS
 62
     7
 10
199.59999999999999
 20
642.39999999999986
 30
0.0
 11
207.40000000000001
 21
642.82000000000016
 31
0.0
  0
LINE
  5
281
  8
DATA
  6
CONTINUOUS
 62
     7
 10
575.63845077583107
 20
642.49999999999989
 30
0.0
 11
575.63845077583107
 21
637.5
 31
0.0
  0
LINE
  5
282
  8
DATA
  6
CONTINUOUS
 62
     7
 10
591.24858958261802
 20
642.49999999999989
 30
0.0
 11
591.24858958261802
 21
637.5
 31
0.0
  0
LINE
  5
283
  8
DATA
  6
CONTINUOUS
 62
     7
 10
568.59607097114667
 20
642.49999999999989
 30
0.0
 11
568.59607097114667
 21
637.5
 31
0.0
  0
LINE
  5
284
  8
DATA
  6
CONTINUOUS
 62
     7
 10
573.27260815158252
 20
642.49999999999989
 30
0.0
 11
573.27260815158252
 21
637.5
 31
0.0
  0
LINE
  5
285
  8
DATA
  6
CONTINUOUS
 62
     7
 10
593.59607097114667
 20
642.49999999999989
 30
0.0
 11
593.59607097114667
 21
637.5
 31
0.0
  0
LINE
  5
286
  8
DATA
  6
CONTINUOUS
 62
     7
 10
598.27260815158252
 20
642.49999999999989
 30
0.0
 11
598.27260815158252
 21
637.5
 31
0.0
  0
LINE
  5
287
  8
DATA
  6
CONTINUOUS
 62
     7
 10
568.59607097114667
 20
642.49999999999989
 30
0.0
 11
573.27260815158252
 21
642.49999999999989
 31
0.0
  0
LINE
  5
288
  8
DATA
  6
CONTINUOUS
 62
     7
 10
575.63845077583107
 20
642.49999999999989
 30
0.0
 11
591.24858958261802
 21
642.49999999999989
 31
0.0
  0
LINE
  5
289
  8
DATA
  6
CONTINUOUS
 62
     7
 10
593.59607097114667
 20
642.49999999999989
 30
0.0
 11
598.27260815158252
 21
642.49999999999989
 31
0.0
  0
LINE
  5
28A
  8
DATA
  6
CONTINUOUS
 62
     7
 10
700.0
 20
350.0
 30
0.0
 11
700.0
 21
394.0
 31
0.0
  0
LINE
  5
28B
  8
DATA
  6
CONTINUOUS
 62
     7
 10
875.0
 20
350.0
 30
0.0
 11
875.0
 21
394.0
 31
0.0
  0
LINE
  5
28C
  8
DATA
  6
CONTINUOUS
 62
     7
 10
700.0
 20
394.0
 30
0.0
 11
875.0
 21
394.0
 31
0.0
  0
LINE
  5
28D
  8
DATA
  6
CONTINUOUS
 62
     7
 10
700.0
 20
350.0
 30
0.0
 11
875.0
 21
350.0
 31
0.0
  0
LINE
  5
28E
  8
DATA
  6
CONTINUOUS
 62
     7
 10
702.60000000000002
 20
350.0
 30
0.0
 11
702.60000000000002
 21
394.0
 31
0.0
  0
LINE
  5
28F
  8
DATA
  6
CONTINUOUS
 62
     7
 10
706.07095178786733
 20
350.0
 30
0.0
 11
729.64542905382154
 21
350.0
 31
0.0
  0
CIRCLE
  5
290
  8
DATA
  6
CONTINUOUS
 62
     7
 10
714.0
 20
356.0
 30
0.0
 40
2.5
  0
LINE
  5
291
  8
DATA
  6
CONTINUOUS
 62
     7
 10
712.5
 20
356.0
 30
0.0
 11
715.5
 21
356.0
 31
0.0
  0
LINE
  5
292
  8
DATA
  6
CONTINUOUS
 62
     7
 10
714.0
 20
354.5
 30
0.0
 11
714.0
 21
357.5
 31
0.0
  0
CIRCLE
  5
293
  8
DATA
  6
CONTINUOUS
 62
     7
 10
714.0
 20
386.0
 30
0.0
 40
2.5
  0
LINE
  5
294
  8
DATA
  6
CONTINUOUS
 62
     7
 10
712.5
 20
386.0
 30
0.0
 11
715.5
 21
386.0
 31
0.0
  0
LINE
  5
295
  8
DATA
  6
CONTINUOUS
 62
     7
 10
714.0
 20
384.5
 30
0.0
 11
714.0
 21
387.5
 31
0.0
  0
CIRCLE
  5
296
  8
DATA
  6
CONTINUOUS
 62
     7
 10
784.0
 20
356.0
 30
0.0
 40
2.5
  0
LINE
  5
297
  8
DATA
  6
CONTINUOUS
 62
     7
 10
782.5
 20
356.0
 30
0.0
 11
785.5
 21
356.0
 31
0.0
  0
LINE
  5
298
  8
DATA
  6
CONTINUOUS
 62
     7
 10
784.0
 20
354.5
 30
0.0
 11
784.0
 21
357.5
 31
0.0
  0
CIRCLE
  5
299
  8
DATA
  6
CONTINUOUS
 62
     7
 10
854.0
 20
356.0
 30
0.0
 40
2.5
  0
LINE
  5
29A
  8
DATA
  6
CONTINUOUS
 62
     7
 10
852.5
 20
356.0
 30
0.0
 11
855.49999999999989
 21
356.0
 31
0.0
  0
LINE
  5
29B
  8
DATA
  6
CONTINUOUS
 62
     7
 10
854.0
 20
354.5
 30
0.0
 11
854.0
 21
357.5
 31
0.0
  0
LINE
  5
29C
  8
DATA
  6
CONTINUOUS
 62
     7
 10
879.49999999999989
 20
364.0
 30
0.0
 11
875.0
 21
364.0
 31
0.0
  0
LINE
  5
29D
  8
DATA
  6
CONTINUOUS
 62
     7
 10
879.49999999999989
 20
372.0
 30
0.0
 11
879.49999999999989
 21
364.0
 31
0.0
  0
LINE
  5
29E
  8
DATA
  6
CONTINUOUS
 62
     7
 10
875.0
 20
372.0
 30
0.0
 11
879.49999999999989
 21
372.0
 31
0.0
  0
LINE
  5
29F
  8
DATA
  6
CONTINUOUS
 62
     7
 10
879.49999999999989
 20
365.66000000000003
 30
0.0
 11
875.0
 21
365.66000000000003
 31
0.0
  0
LINE
  5
2A0
  8
DATA
  6
CONTINUOUS
 62
     7
 10
875.0
 20
370.33999999999997
 30
0.0
 11
879.49999999999989
 21
370.33999999999997
 31
0.0
  0
POLYLINE
  5
2A1
  8
DATA
  6
CONTINUOUS
 62
     7
 66
     1
 10
0.0
 20
0.0
 30
0.0
  0
VERTEX
  5
53C
  8
DATA
  6
CONTINUOUS
 62
     7
 10
875.0
 20
370.64999999999998
 30
0.0
  0
VERTEX
  5
53D
  8
DATA
  6
CONTINUOUS
 62
     7
 10
875.0
 20
375.35000000000002
 30
0.0
  0
VERTEX
  5
53E
  8
DATA
  6
CONTINUOUS
 62
     7
 10
879.49999999999989
 20
375.35000000000002
 30
0.0
  0
SEQEND
  5
53F
  8
DATA
  6
CONTINUOUS
 62
     7
  0
LINE
  5
2A7
  8
DATA
  6
CONTINUOUS
 62
     7
 10
879.49999999999989
 20
372.0
 30
0.0
 11
879.49999999999989
 21
375.35000000000002
 31
0.0
  0
LINE
  5
2A8
  8
DATA
  6
CONTINUOUS
 62
     7
 10
885.0
 20
364.10000000000008
 30
0.0
 11
879.49999999999989
 21
364.10000000000008
 31
0.0
  0
LINE
  5
2A9
  8
DATA
  6
CONTINUOUS
 62
     7
 10
885.0
 20
371.89999999999998
 30
0.0
 11
885.0
 21
364.10000000000008
 31
0.0
  0
LINE
  5
2AA
  8
DATA
  6
CONTINUOUS
 62
     7
 10
879.49999999999989
 20
371.89999999999998
 30
0.0
 11
885.0
 21
371.89999999999998
 31
0.0
  0
ARC
  5
2AB
  8
DATA
  6
CONTINUOUS
 62
     7
 10
698.5
 20
374.0
 30
0.0
 40
1.5
 50
90.0
 51
270.0
  0
LINE
  5
2AC
  8
DATA
  6
CONTINUOUS
 62
     7
 10
698.5
 20
375.5
 30
0.0
 11
700.0
 21
375.5
 31
0.0
  0
LINE
  5
2AD
  8
DATA
  6
CONTINUOUS
 62
     7
 10
698.5
 20
372.5
 30
0.0
 11
700.0
 21
372.5
 31
0.0
  0
LINE
  5
2AE
  8
DATA
  6
CONTINUOUS
 62
     7
 10
699.0
 20
363.0
 30
0.0
 11
699.0
 21
367.0
 31
0.0
  0
LINE
  5
2AF
  8
DATA
  6
CONTINUOUS
 62
     7
 10
699.0
 20
367.0
 30
0.0
 11
700.0
 21
367.0
 31
0.0
  0
LINE
  5
2B0
  8
DATA
  6
CONTINUOUS
 62
     7
 10
699.0
 20
363.0
 30
0.0
 11
700.0
 21
363.0
 31
0.0
  0
LINE
  5
2B1
  8
DATA
  6
CONTINUOUS
 62
     7
 10
728.23388390340881
 20
346.0
 30
0.0
 11
728.73388390340881
 21
350.0
 31
0.0
  0
LINE
  5
2B2
  8
DATA
  6
CONTINUOUS
 62
     7
 10
710.23388390340881
 20
346.0
 30
0.0
 11
709.73388390340881
 21
350.0
 31
0.0
  0
LINE
  5
2B3
  8
DATA
  6
CONTINUOUS
 62
     7
 10
728.23388390340881
 20
346.0
 30
0.0
 11
710.23388390340881
 21
346.0
 31
0.0
  0
LINE
  5
2B4
  8
DATA
  6
CONTINUOUS
 62
     7
 10
841.00419821378352
 20
346.0
 30
0.0
 11
840.50419821378341
 21
350.0
 31
0.0
  0
LINE
  5
2B5
  8
DATA
  6
CONTINUOUS
 62
     7
 10
859.00419821378352
 20
346.0
 30
0.0
 11
859.50419821378364
 21
350.0
 31
0.0
  0
LINE
  5
2B6
  8
DATA
  6
CONTINUOUS
 62
     7
 10
841.00419821378352
 20
346.0
 30
0.0
 11
859.00419821378352
 21
346.0
 31
0.0
  0
LINE
  5
2B7
  8
DATA
  6
CONTINUOUS
 62
     7
 10
170.89999999999989
 20
781.5
 30
0.0
 11
170.89999999999989
 21
737.5
 31
0.0
  0
LINE
  5
2B8
  8
DATA
  6
CONTINUOUS
 62
     7
 10
611.10000000000002
 20
737.5
 30
0.0
 11
611.10000000000002
 21
781.5
 31
0.0
  0
ARC
  5
2B9
  8
DATA
  6
CONTINUOUS
 62
     7
 10
174.5
 20
738.49999999999989
 30
0.0
 40
1.0
 50
180.0
 51
270.0
  0
ARC
  5
2BA
  8
DATA
  6
CONTINUOUS
 62
     7
 10
607.5
 20
738.49999999999989
 30
0.0
 40
1.0
 50
270.0
 51
0.0
  0
LINE
  5
2BB
  8
DATA
  6
CONTINUOUS
 62
     7
 10
726.0
 20
350.0
 30
0.0
 11
726.0
 21
394.0
 31
0.0
  0
ENDSEC
  0
EOF
