  0
SECTION
  2
HEADER
  9
$ACADVER
  1
AC1009
  9
$INSBASE
 10
0.0
 20
0.0
 30
0.0
  9
$EXTMIN
 10
-260.02197097989512
 20
-399.7427877598484
 30
-0.0015258207003583
  9
$EXTMAX
 10
460.0219743326561
 20
670.58742336272144
 30
0.0000000349246037
  9
$LIMMIN
 10
0.0
 20
0.0
  9
$LIMMAX
 10
0.0
 20
0.0
  9
$ORTHOMODE
 70
     0
  9
$REGENMODE
 70
     1
  9
$FILLMODE
 70
     1
  9
$QTEXTMODE
 70
     0
  9
$MIRRTEXT
 70
     1
  9
$DRAGMODE
 70
     2
  9
$LTSCALE
 40
20.32
  9
$OSMODE
 70
   231
  9
$ATTMODE
 70
     1
  9
$TEXTSIZE
 40
0.0
  9
$TRACEWID
 40
1.0
  9
$TEXTSTYLE
  7
STANDARD
  9
$CLAYER
  8
DATA
  9
$CELTYPE
  6
BYLAYER
  9
$CECOLOR
 62
   256
  9
$DIMSCALE
 40
1.0
  9
$DIMASZ
 40
0.18
  9
$DIMEXO
 40
0.0625
  9
$DIMDLI
 40
0.38
  9
$DIMRND
 40
0.0
  9
$DIMDLE
 40
0.0
  9
$DIMEXE
 40
0.18
  9
$DIMTP
 40
0.0
  9
$DIMTM
 40
0.0
  9
$DIMTXT
 40
0.18
  9
$DIMCEN
 40
0.09
  9
$DIMTSZ
 40
0.0
  9
$DIMTOL
 70
     0
  9
$DIMLIM
 70
     0
  9
$DIMTIH
 70
     1
  9
$DIMTOH
 70
     1
  9
$DIMSE1
 70
     0
  9
$DIMSE2
 70
     0
  9
$DIMTAD
 70
     0
  9
$DIMZIN
 70
     0
  9
$DIMBLK
  1

  9
$DIMASO
 70
     1
  9
$DIMSHO
 70
     1
  9
$DIMPOST
  1

  9
$DIMAPOST
  1

  9
$DIMALT
 70
     0
  9
$DIMALTD
 70
     2
  9
$DIMALTF
 40
25.399999999999999
  9
$DIMLFAC
 40
1.0
  9
$DIMTOFL
 70
     0
  9
$DIMTVP
 40
0.0
  9
$DIMTIX
 70
     0
  9
$DIMSOXD
 70
     0
  9
$DIMSAH
 70
     0
  9
$DIMBLK1
  1

  9
$DIMBLK2
  1

  9
$DIMSTYLE
  2
STANDARD
  9
$DIMCLRD
 70
     0
  9
$DIMCLRE
 70
     0
  9
$DIMCLRT
 70
     0
  9
$DIMTFAC
 40
1.0
  9
$DIMGAP
 40
0.09
  9
$LUNITS
 70
     2
  9
$LUPREC
 70
     4
  9
$SKETCHINC
 40
0.1
  9
$FILLETRAD
 40
0.0
  9
$AUNITS
 70
     0
  9
$AUPREC
 70
     0
  9
$MENU
  1
acad
  9
$ELEVATION
 40
0.0
  9
$PELEVATION
 40
0.0
  9
$THICKNESS
 40
0.0
  9
$LIMCHECK
 70
     0
  9
$BLIPMODE
 70
     0
  9
$CHAMFERA
 40
0.0
  9
$CHAMFERB
 40
0.0
  9
$SKPOLY
 70
     0
  9
$TDCREATE
 40
2455202.7200000002
  9
$TDUPDATE
 40
2455202.7217948032
  9
$TDINDWG
 40
0.0002759259
  9
$TDUSRTIMER
 40
0.0002759259
  9
$USRTIMER
 70
     1
  9
$ANGBASE
 50
0.0
  9
$ANGDIR
 70
     0
  9
$PDMODE
 70
     1
  9
$PDSIZE
 40
-2.0
  9
$PLINEWID
 40
0.0
  9
$COORDS
 70
     0
  9
$SPLFRAME
 70
     0
  9
$SPLINETYPE
 70
     6
  9
$SPLINESEGS
 70
     8
  9
$ATTDIA
 70
     0
  9
$ATTREQ
 70
     1
  9
$HANDLING
 70
     1
  9
$HANDSEED
  5
36E
  9
$SURFTAB1
 70
     6
  9
$SURFTAB2
 70
     6
  9
$SURFTYPE
 70
     6
  9
$SURFU
 70
     6
  9
$SURFV
 70
     6
  9
$UCSNAME
  2

  9
$UCSORG
 10
0.0
 20
0.0
 30
0.0
  9
$UCSXDIR
 10
1.0
 20
0.0
 30
0.0
  9
$UCSYDIR
 10
0.0
 20
1.0
 30
0.0
  9
$PUCSNAME
  2

  9
$PUCSORG
 10
0.0
 20
0.0
 30
0.0
  9
$PUCSXDIR
 10
1.0
 20
0.0
 30
0.0
  9
$PUCSYDIR
 10
0.0
 20
1.0
 30
0.0
  9
$USERI1
 70
     0
  9
$USERI2
 70
     0
  9
$USERI3
 70
     0
  9
$USERI4
 70
     0
  9
$USERI5
 70
     0
  9
$USERR1
 40
0.0
  9
$USERR2
 40
0.0
  9
$USERR3
 40
0.0
  9
$USERR4
 40
0.0
  9
$USERR5
 40
0.0
  9
$WORLDVIEW
 70
     1
  9
$SHADEDGE
 70
     3
  9
$SHADEDIF
 70
    70
  9
$TILEMODE
 70
     1
  9
$MAXACTVP
 70
    64
  9
$PLIMCHECK
 70
     0
  9
$PEXTMIN
 10
1.0000000000000000E+020
 20
1.0000000000000000E+020
 30
1.0000000000000000E+020
  9
$PEXTMAX
 10
-1.0000000000000000E+020
 20
-1.0000000000000000E+020
 30
-1.0000000000000000E+020
  9
$PLIMMIN
 10
0.0
 20
0.0
  9
$PLIMMAX
 10
12.0
 20
9.0
  9
$UNITMODE
 70
     0
  9
$VISRETAIN
 70
     0
  9
$PLINEGEN
 70
     1
  9
$PSLTSCALE
 70
     0
  0
ENDSEC
  0
SECTION
  2
TABLES
  0
TABLE
  2
VPORT
 70
     1
  0
VPORT
  2
*ACTIVE
 70
     0
 10
0.0
 20
0.0
 11
1.0
 21
1.0
 12
100.00000167638051
 22
135.42231780143649
 13
0.0
 23
0.0
 14
1.0
 24
1.0
 15
0.0
 25
0.0
 16
0.0
 26
0.0
 36
1.0
 17
0.0
 27
0.0
 37
0.0
 40
1078.219622998166
 41
1.964329643296433
 42
50.0
 43
0.0
 44
0.0
 50
0.0
 51
0.0
 71
     0
 72
  2000
 73
     1
 74
     1
 75
     0
 76
     0
 77
     0
 78
     0
  0
ENDTAB
  0
TABLE
  2
LTYPE
 70
    11
  0
LTYPE
  2
CONTINUOUS
 70
     0
  3
Solid line
 72
    65
 73
     0
 40
0.0
  0
ENDTAB
  0
TABLE
  2
LAYER
 70
     5
  0
LAYER
  2
0
 70
     0
 62
     7
  6
CONTINUOUS
  0
LAYER
  2
DATA
 70
     0
 62
     7
  6
CONTINUOUS
  0
LAYER
  2
HIBINO-BASE
 70
     0
 62
     7
  6
CONTINUOUS
  0
LAYER
  2
SPEC
 70
     0
 62
     7
  6
CONTINUOUS
  0
LAYER
  2
DIMNSIONS
 70
     0
 62
     7
  6
CONTINUOUS
  0
ENDTAB
  0
TABLE
  2
STYLE
 70
     3
  0
STYLE
  2
STANDARD
 70
     0
 40
0.0
 41
1.0
 50
0.0
 71
     0
 42
0.0
  3
txt
  4
BIGFONT.SHX
  0
ENDTAB
  0
TABLE
  2
VIEW
 70
     0
  0
ENDTAB
  0
TABLE
  2
UCS
 70
     0
  0
ENDTAB
  0
TABLE
  2
APPID
 70
     3
  0
APPID
  2
ACAD
 70
     0
  0
APPID
  2
ACADANNOTATIVE
 70
     0
  0
APPID
  2
ACAD_MLEADERVER
 70
     0
  0
ENDTAB
  0
TABLE
  2
DIMSTYLE
 70
     2
  0
DIMSTYLE
  2
STANDARD
 70
     0
  3

  4

  5

  6

  7

 40
1.0
 41
0.18
 42
0.0625
 43
0.38
 44
0.18
 45
0.0
 46
0.0
 47
0.0
 48
0.0
140
0.18
141
0.09
142
0.0
143
25.399999999999999
144
1.0
145
0.0
146
1.0
147
0.09
 71
     0
 72
     0
 73
     1
 74
     1
 75
     0
 76
     0
 77
     0
 78
     0
170
     0
171
     2
172
     0
173
     0
174
     0
175
     0
176
     0
177
     0
178
     0
  0
ENDTAB
  0
ENDSEC
  0
SECTION
  2
BLOCKS
  0
BLOCK
  8
0
  2
$MODEL_SPACE
 70
     0
 10
0.0
 20
0.0
 30
0.0
  3
$MODEL_SPACE
  1

  0
ENDBLK
  5
295
  8
0
  0
BLOCK
 67
     1
  8
0
  2
$PAPER_SPACE
 70
     0
 10
0.0
 20
0.0
 30
0.0
  3
$PAPER_SPACE
  1

  0
ENDBLK
  5
291
 67
     1
  8
0
  0
ENDSEC
  0
SECTION
  2
ENTITIES
  0
LINE
  5
2C
  8
HIBINO-BASE
  6
CONTINUOUS
 62
     7
 10
-260.0
 20
670.55482364071543
 30
0.0
 11
460.0
 21
670.55482364071543
 31
0.0
  0
LINE
  5
2D
  8
HIBINO-BASE
  6
CONTINUOUS
 62
     7
 10
460.0
 20
-369.44517635928452
 30
0.0
 11
-260.0
 21
-369.44517635928452
 31
0.0
  0
LINE
  5
2E
  8
HIBINO-BASE
  6
CONTINUOUS
 62
     7
 10
-260.0
 20
-369.44517635928452
 30
0.0
 11
-260.0
 21
670.55482364071543
 31
0.0
  0
LINE
  5
2F
  8
HIBINO-BASE
  6
CONTINUOUS
 62
     7
 10
460.0
 20
670.55482364071543
 30
0.0
 11
460.0
 21
-369.44517635928452
 31
0.0
  0
LINE
  5
30
  8
HIBINO-BASE
  6
CONTINUOUS
 62
     7
 10
100.0
 20
-279.4451763592844
 30
0.0
 11
460.0
 21
-279.4451763592844
 31
0.0
  0
LINE
  5
31
  8
HIBINO-BASE
  6
CONTINUOUS
 62
     7
 10
100.0
 20
-369.44517635928452
 30
0.0
 11
100.0
 21
-279.4451763592844
 31
0.0
  0
TEXT
  5
32
  8
HIBINO-BASE
 62
     7
 10
103.59999999999999
 20
-289.47994969261782
 30
0.0
 40
6.5153645833333318
  1
NOTE
 41
0.7
 11
103.59999999999999
 21
-282.96458510928443
 31
0.0
 73
     3
  0
LINE
  5
33
  8
HIBINO-BASE
  6
CONTINUOUS
 62
     7
 10
240.0
 20
-369.44517635928452
 30
0.0
 11
240.0
 21
-279.4451763592844
 31
0.0
  0
TEXT
  5
34
  8
HIBINO-BASE
 62
     7
 10
243.59999999999999
 20
-289.47994969261782
 30
0.0
 40
6.5153645833333318
  1
TITLE
 41
0.7
 11
243.59999999999999
 21
-282.96458510928443
 31
0.0
 73
     3
  0
LINE
  5
35
  8
HIBINO-BASE
  6
CONTINUOUS
 62
     7
 10
100.0
 20
-329.4451763592844
 30
0.0
 11
460.0
 21
-329.4451763592844
 31
0.0
  0
TEXT
  5
36
  8
HIBINO-BASE
 62
     7
 10
293.60000000000002
 20
-339.25466969261782
 30
0.0
 40
6.5153645833333318
  1
DRAWN
 41
0.7
 11
293.60000000000002
 21
-332.73930510928437
 31
0.0
 73
     3
  0
TEXT
  5
37
  8
HIBINO-BASE
 62
     7
 10
193.59999999999999
 20
-339.25466969261782
 30
0.0
 40
6.5153645833333318
  1
DATE
 41
0.7
 11
193.59999999999999
 21
-332.73930510928437
 31
0.0
 73
     3
  0
TEXT
  5
38
  8
HIBINO-BASE
 62
     7
 10
153.59999999999991
 20
-339.25466969261782
 30
0.0
 40
6.5153645833333318
  1
SCALE
 41
0.7
 11
153.59999999999991
 21
-332.73930510928437
 31
0.0
 73
     3
  0
TEXT
  5
39
  8
HIBINO-BASE
 62
     7
 10
243.59999999999999
 20
-339.25466969261782
 30
0.0
 40
6.5153645833333318
  1
DESIGN
 41
0.7
 11
243.59999999999999
 21
-332.73930510928437
 31
0.0
 73
     3
  0
TEXT
  5
3A
  8
HIBINO-BASE
 62
     7
 10
393.60000000000002
 20
-339.25466969261782
 30
0.0
 40
6.5153645833333318
  1
DRAWING NO.
 41
0.7
 11
393.60000000000002
 21
-332.73930510928437
 31
0.0
 73
     3
  0
TEXT
  5
3B
  8
HIBINO-BASE
 62
     7
 10
343.60000000000002
 20
-339.25466969261782
 30
0.0
 40
6.5153645833333318
  1
CHECK
 41
0.7
 11
343.60000000000002
 21
-332.73930510928437
 31
0.0
 73
     3
  0
LINE
  5
3C
  8
HIBINO-BASE
  6
CONTINUOUS
 62
     7
 10
157.5
 20
-364.44517635928452
 30
0.0
 11
172.5
 21
-349.44517635928429
 31
0.0
  0
TEXT
  5
3D
  8
HIBINO-BASE
 62
     7
 10
155.0
 20
-353.88094969261778
 30
0.0
 40
6.5153645833333318
  1
1
 41
0.7
 11
155.0
 21
-347.3655851092845
 31
0.0
 73
     3
  0
LINE
  5
3E
  8
HIBINO-BASE
  6
CONTINUOUS
 62
     7
 10
150.0
 20
-369.44517635928452
 30
0.0
 11
150.0
 21
-329.4451763592844
 31
0.0
  0
LINE
  5
3F
  8
HIBINO-BASE
  6
CONTINUOUS
 62
     7
 10
190.0
 20
-369.44517635928452
 30
0.0
 11
190.0
 21
-329.4451763592844
 31
0.0
  0
LINE
  5
40
  8
HIBINO-BASE
  6
CONTINUOUS
 62
     7
 10
290.0
 20
-329.4451763592844
 30
0.0
 11
290.0
 21
-369.44517635928452
 31
0.0
  0
LINE
  5
41
  8
HIBINO-BASE
  6
CONTINUOUS
 62
     7
 10
390.0
 20
-329.4451763592844
 30
0.0
 11
390.0
 21
-369.44517635928452
 31
0.0
  0
LINE
  5
42
  8
HIBINO-BASE
  6
CONTINUOUS
 62
     7
 10
339.99999999999989
 20
-369.44517635928452
 30
0.0
 11
339.99999999999989
 21
-329.4451763592844
 31
0.0
  0
TEXT
  5
43
  8
HIBINO-BASE
 62
     7
 10
193.42616000000001
 20
-357.99058969261779
 30
0.0
 40
6.5153645833333318
  1
'09.10.
 41
0.7
 11
193.42616000000001
 21
-351.47522510928439
 31
0.0
 73
     3
  0
TEXT
  5
44
  8
HIBINO-BASE
 62
     7
 10
170.0
 20
-361.38094969261778
 30
0.0
 40
6.5153645833333318
  1
4
 41
0.7
 11
170.0
 21
-354.86558510928438
 31
0.0
 73
     3
  0
TEXT
  5
45
  8
HIBINO-BASE
 62
     7
 10
115.5333333333334
 20
-361.54117635928441
 30
0.0
 40
13.03072916666666
  1
A4
 41
0.7
 11
115.5333333333334
 21
-348.51044719261768
 31
0.0
 73
     3
  0
TEXT
  5
46
  8
HIBINO-BASE
 62
     7
 10
103.8333333333333
 20
-339.92299635928441
 30
0.0
 40
6.5153645833333318
  1
PAPER SIZE
 41
0.7
 11
103.8333333333333
 21
-333.40763177595107
 31
0.0
 73
     3
  0
TEXT
  5
47
  8
HIBINO-BASE
 62
     7
 10
-248.3431570128075
 20
-395.02315051230357
 30
0.0
 40
14.116623263888879
  1
Hibino-Intersound Corporation
 41
0.7
 11
-248.3431570128075
 21
-380.9065272484147
 31
0.0
 73
     3
  0
TEXT
  5
48
  8
HIBINO-BASE
 62
     7
 10
182.58386641595121
 20
-393.7817945104664
 30
0.0
 40
14.116623263888879
  1
ヒビノインターサウンド株式会社
 41
0.7
 11
182.58386641595121
 21
-379.66517124657747
 31
0.0
 73
     3
  0
TEXT
  5
49
  8
HIBINO-BASE
 62
     7
 10
298.40091119387893
 20
-357.6471708585791
 30
0.0
 40
6.5153645833333318
  1
T.Ootake
 41
0.7
 11
298.40091119387893
 21
-351.13180627524582
 31
0.0
 73
     3
  0
LINE
  5
4A
  8
SPEC
  6
CONTINUOUS
 62
     7
 10
-230.0
 20
630.55482364071554
 30
0.0
 11
360.0
 21
630.55482364071554
 31
0.0
  0
LINE
  5
4B
  8
SPEC
  6
CONTINUOUS
 62
     7
 10
-230.0
 20
615.55482364071554
 30
0.0
 11
360.0
 21
615.55482364071554
 31
0.0
  0
LINE
  5
4C
  8
SPEC
  6
CONTINUOUS
 62
     7
 10
-230.0
 20
555.55482364071554
 30
0.0
 11
360.0
 21
555.55482364071554
 31
0.0
  0
LINE
  5
4D
  8
SPEC
  6
CONTINUOUS
 62
     7
 10
-230.0
 20
570.55482364071554
 30
0.0
 11
360.0
 21
570.55482364071554
 31
0.0
  0
LINE
  5
4E
  8
SPEC
  6
CONTINUOUS
 62
     7
 10
-230.0
 20
585.55482364071554
 30
0.0
 11
360.0
 21
585.55482364071554
 31
0.0
  0
LINE
  5
4F
  8
SPEC
  6
CONTINUOUS
 62
     7
 10
-230.0
 20
540.55482364071554
 30
0.0
 11
360.0
 21
540.55482364071554
 31
0.0
  0
LINE
  5
50
  8
SPEC
  6
CONTINUOUS
 62
     7
 10
-230.0
 20
510.55482364071543
 30
0.0
 11
360.0
 21
510.55482364071543
 31
0.0
  0
LINE
  5
51
  8
SPEC
  6
CONTINUOUS
 62
     7
 10
-230.0
 20
525.55482364071554
 30
0.0
 11
360.0
 21
525.55482364071554
 31
0.0
  0
LINE
  5
52
  8
SPEC
  6
CONTINUOUS
 62
     7
 10
-230.0
 20
495.55482364071543
 30
0.0
 11
360.0
 21
495.55482364071543
 31
0.0
  0
LINE
  5
53
  8
SPEC
  6
CONTINUOUS
 62
     7
 10
-230.0
 20
480.55482364071543
 30
0.0
 11
360.0
 21
480.55482364071543
 31
0.0
  0
LINE
  5
54
  8
SPEC
  6
CONTINUOUS
 62
     7
 10
-230.0
 20
600.55482364071554
 30
0.0
 11
360.0
 21
600.55482364071554
 31
0.0
  0
LINE
  5
55
  8
SPEC
  6
CONTINUOUS
 62
     7
 10
-230.0
 20
630.55482364071554
 30
0.0
 11
-230.0
 21
465.55482364071543
 31
0.0
  0
TEXT
  5
56
  8
SPEC
 62
     7
 10
-225.0
 20
636.12790364071554
 30
0.0
 40
9.7730468750000004
  1
仕様
 41
0.7
 11
-225.0
 21
645.90095051571552
 31
0.0
 73
     3
  0
LINE
  5
57
  8
SPEC
  6
CONTINUOUS
 62
     7
 10
-100.0
 20
630.55482364071554
 30
0.0
 11
-100.0
 21
465.55482364071543
 31
0.0
  0
LINE
  5
58
  8
SPEC
  6
CONTINUOUS
 62
     7
 10
360.0
 20
630.55482364071554
 30
0.0
 11
360.0
 21
465.55482364071543
 31
0.0
  0
TEXT
  5
59
  8
SPEC
 62
     7
 10
-226.6615152844293
 20
619.2052378577082
 30
0.0
 40
7.6012449999999978
  1
形式
 41
0.7
 11
-226.6615152844293
 21
626.80648285770815
 31
0.0
 73
     3
  0
LINE
  5
5A
  8
SPEC
  6
CONTINUOUS
 62
     7
 10
-230.0
 20
465.55482364071543
 30
0.0
 11
360.0
 21
465.55482364071543
 31
0.0
  0
TEXT
  5
5B
  8
SPEC
 62
     7
 10
-227.43867587297339
 20
529.59977911850558
 30
0.0
 40
7.6012586805555546
  1
コントロール端子
 41
0.7
 11
-227.43867587297339
 21
537.20103779906117
 31
0.0
 73
     3
  0
TEXT
  5
5C
  8
SPEC
 62
     7
 10
-226.76057427410029
 20
484.3958904019737
 30
0.0
 40
7.6012586805555546
  1
寸法
 41
0.7
 11
-226.76057427410029
 21
491.99714908252918
 31
0.0
 73
     3
  0
TEXT
  5
5D
  8
SPEC
 62
     7
 10
-226.6311341953305
 20
469.43024036773272
 30
0.0
 40
7.6012586805555546
  1
重量
 41
0.7
 11
-226.6311341953305
 21
477.0314990482882
 31
0.0
 73
     3
  0
TEXT
  5
5E
  8
SPEC
 62
     7
 10
-226.63856715054041
 20
514.53541457018923
 30
0.0
 40
7.6012586805555546
  1
電源
 41
0.7
 11
-226.63856715054041
 21
522.13667325074482
 31
0.0
 73
     3
  0
TEXT
  5
5F
  8
SPEC
 62
     7
 10
-226.5403678232089
 20
589.48615778570479
 30
0.0
 40
7.6012586805555546
  1
入力ビデオ信号
 41
0.7
 11
-226.5403678232089
 21
597.08741646626027
 31
0.0
 73
     3
  0
TEXT
  5
60
  8
SPEC
 62
     7
 10
-226.92136619261601
 20
604.12919450619745
 30
0.0
 40
7.6012586805555546
  1
出力ビデオ帯域
 41
0.7
 11
-226.92136619261601
 21
611.73045318675304
 31
0.0
 73
     3
  0
TEXT
  5
61
  8
SPEC
 62
     7
 10
-96.321713769058164
 20
529.26553469756323
 30
0.0
 40
7.6012586805555546
  1
RS232メス、ミニステレオ3.5mmjack
 41
0.7
 11
-96.321713769058164
 21
536.86679337811881
 31
0.0
 73
     3
  0
TEXT
  5
62
  8
SPEC
 62
     7
 10
-96.376035430649281
 20
514.25565065779358
 30
0.0
 40
7.6012586805555546
  1
5V DC
 41
0.7
 11
-96.376035430649281
 21
521.85690933834917
 31
0.0
 73
     3
  0
TEXT
  5
63
  8
SPEC
 62
     7
 10
-96.898791549722844
 20
589.41272233776976
 30
0.0
 40
7.6012586805555546
  1
1.2Vp-p
 41
0.7
 11
-96.898791549722844
 21
597.01398101832535
 31
0.0
 73
     3
  0
TEXT
  5
64
  8
SPEC
 62
     7
 10
-96.308298899598554
 20
604.21244255321733
 30
0.0
 40
7.6012586805555546
  1
225MHz
 41
0.7
 11
-96.308298899598554
 21
611.8137012337728
 31
0.0
 73
     3
  0
TEXT
  5
65
  8
SPEC
 62
     7
 10
-226.4441570962814
 20
574.62386130582365
 30
0.0
 40
7.6012586805555546
  1
入力DDC信号
 41
0.7
 11
-226.4441570962814
 21
582.22511998637924
 31
0.0
 73
     3
  0
TEXT
  5
66
  8
SPEC
 62
     7
 10
-96.286570597105623
 20
574.10925148705462
 30
0.0
 40
7.6012586805555546
  1
5Vp-p(TTL)
 41
0.7
 11
-96.286570597105623
 21
581.7105101676101
 31
0.0
 73
     3
  0
TEXT
  5
67
  8
SPEC
 62
     7
 10
-96.287866055805651
 20
469.90305788872718
 30
0.0
 40
7.6012586805555546
  1
約750g
 41
0.7
 11
-96.287866055805651
 21
477.50431656928271
 31
0.0
 73
     3
  0
TEXT
  5
68
  8
SPEC
 62
     7
 10
-226.31179756984409
 20
544.44239942777995
 30
0.0
 40
7.6012586805555546
  1
HDMI入出力端子
 41
0.7
 11
-226.31179756984409
 21
552.04365810833553
 31
0.0
 73
     3
  0
TEXT
  5
69
  8
SPEC
 62
     7
 10
-96.359639202718327
 20
544.36011392220382
 30
0.0
 40
7.6012586805555546
  1
TypeA 29pinメス　
 41
0.7
 11
-96.359639202718327
 21
551.96137260275941
 31
0.0
 73
     3
  0
TEXT
  5
6A
  8
SPEC
 62
     7
 10
-226.52890735383829
 20
499.6796887916953
 30
0.0
 40
7.6012586805555546
  1
消費電力
 41
0.7
 11
-226.52890735383829
 21
507.28094747225077
 31
0.0
 73
     3
  0
TEXT
  5
6B
  8
SPEC
 62
     7
 10
-96.831893322651993
 20
499.18362088825768
 30
0.0
 40
7.6012586805555546
  1
10W(最大)
 41
0.7
 11
-96.831893322651993
 21
506.78487956881321
 31
0.0
 73
     3
  0
TEXT
  5
6C
  8
SPEC
 62
     7
 10
-226.3386917801794
 20
559.4162012656717
 30
0.0
 40
7.6012586805555546
  1
最大対応解像度
 41
0.7
 11
-226.3386917801794
 21
567.01745994622718
 31
0.0
 73
     3
  0
TEXT
  5
6D
  8
SPEC
 62
     7
 10
-96.703874864775656
 20
559.16361376361556
 30
0.0
 40
7.6012586805555546
  1
1080p/12bit 1920\U+00D71200
 41
0.7
 11
-96.703874864775656
 21
566.76487244417115
 31
0.0
 73
     3
  0
TEXT
  5
6E
  8
SPEC
 62
     7
 10
-95.995595097754006
 20
484.27812580589119
 30
0.0
 40
7.6012586805555546
  1
435(W)\U+00D744(H)\U+00D7110(D)mm(突起部含まず)
 41
0.7
 11
-95.995595097754006
 21
491.87938448644678
 31
0.0
 73
     3
  0
TEXT
  5
6F
  8
SPEC
 62
     7
 10
-96.380613381331344
 20
619.22984380723801
 30
0.0
 40
7.6012586805555546
  1
8\U+00D71HDMI切替機
 41
0.7
 11
-96.380613381331344
 21
626.83110248779349
 31
0.0
 73
     3
  0
TEXT
  5
70
  8
DIMNSIONS
 62
     7
 10
19.999999999999979
 20
-320.36721635928433
 30
0.0
 40
9.7730468750000004
  1
(単位：mm)
 41
0.7
 11
19.999999999999979
 21
-310.59416948428441
 31
0.0
 73
     3
  0
LINE
  5
71
  8
DIMNSIONS
  6
CONTINUOUS
 62
     7
 10
-195.5
 20
-112.5
 30
0.0
 11
-220.5
 21
-112.5
 31
0.0
  0
LINE
  5
72
  8
DIMNSIONS
  6
CONTINUOUS
 62
     7
 10
-195.5
 20
-68.5
 30
0.0
 11
-220.5
 21
-68.5
 31
0.0
  0
LINE
  5
73
  8
DIMNSIONS
  6
CONTINUOUS
 62
     7
 10
-212.5
 20
-112.5
 30
0.0
 11
-212.5
 21
-68.5
 31
0.0
  0
LINE
  5
74
  8
DIMNSIONS
  6
CONTINUOUS
 62
     7
 10
-212.5
 20
-112.5
 30
0.0
 11
-215.18015918060101
 21
-102.497509765625
 31
0.0
  0
LINE
  5
75
  8
DIMNSIONS
  6
CONTINUOUS
 62
     7
 10
-212.5
 20
-112.5
 30
0.0
 11
-209.81984081939899
 21
-102.497509765625
 31
0.0
  0
LINE
  5
76
  8
DIMNSIONS
  6
CONTINUOUS
 62
     7
 10
-212.5
 20
-68.5
 30
0.0
 11
-209.81984081939899
 21
-78.502490234374974
 31
0.0
  0
LINE
  5
77
  8
DIMNSIONS
  6
CONTINUOUS
 62
     7
 10
-212.5
 20
-68.5
 30
0.0
 11
-215.18015918060101
 21
-78.502490234374974
 31
0.0
  0
TEXT
  5
78
  8
DIMNSIONS
 62
     7
 10
-216.4755555555555
 20
-97.555555555555557
 30
0.0
 40
10.85894097222222
  1
44
 50
90.0
 41
0.7
 11
-227.3344965277777
 21
-97.555555555555557
 31
0.0
 73
     3
  0
LINE
  5
79
  8
DIMNSIONS
  6
CONTINUOUS
 62
     7
 10
-187.5
 20
-120.5
 30
0.0
 11
-187.5
 21
-145.5
 31
0.0
  0
LINE
  5
7A
  8
DIMNSIONS
  6
CONTINUOUS
 62
     7
 10
247.5
 20
-120.5
 30
0.0
 11
247.5
 21
-145.5
 31
0.0
  0
LINE
  5
7B
  8
DIMNSIONS
  6
CONTINUOUS
 62
     7
 10
-187.5
 20
-137.5
 30
0.0
 11
247.5
 21
-137.5
 31
0.0
  0
LINE
  5
7C
  8
DIMNSIONS
  6
CONTINUOUS
 62
     7
 10
-187.5
 20
-137.5
 30
0.0
 11
-177.4975097656249
 21
-134.81984081939899
 31
0.0
  0
LINE
  5
7D
  8
DIMNSIONS
  6
CONTINUOUS
 62
     7
 10
-187.5
 20
-137.5
 30
0.0
 11
-177.4975097656249
 21
-140.18015918060101
 31
0.0
  0
LINE
  5
7E
  8
DIMNSIONS
  6
CONTINUOUS
 62
     7
 10
247.5
 20
-137.5
 30
0.0
 11
237.49750976562501
 21
-140.18015918060101
 31
0.0
  0
LINE
  5
7F
  8
DIMNSIONS
  6
CONTINUOUS
 62
     7
 10
247.5
 20
-137.5
 30
0.0
 11
237.49750976562501
 21
-134.81984081939899
 31
0.0
  0
TEXT
  5
80
  8
DIMNSIONS
 62
     7
 10
19.416666666666679
 20
-133.5244444444445
 30
0.0
 40
10.85894097222222
  1
435
 41
0.7
 11
19.416666666666679
 21
-122.6655034722223
 31
0.0
 73
     3
  0
LINE
  5
81
  8
DIMNSIONS
  6
CONTINUOUS
 62
     7
 10
-195.5
 20
-12.5
 30
0.0
 11
-220.5
 21
-12.5
 31
0.0
  0
LINE
  5
82
  8
DIMNSIONS
  6
CONTINUOUS
 62
     7
 10
-195.5
 20
97.5
 30
0.0
 11
-220.5
 21
97.5
 31
0.0
  0
LINE
  5
83
  8
DIMNSIONS
  6
CONTINUOUS
 62
     7
 10
-212.5
 20
-12.5
 30
0.0
 11
-212.5
 21
97.5
 31
0.0
  0
LINE
  5
84
  8
DIMNSIONS
  6
CONTINUOUS
 62
     7
 10
-212.5
 20
-12.5
 30
0.0
 11
-215.18015918060101
 21
-2.4975097656250109
 31
0.0
  0
LINE
  5
85
  8
DIMNSIONS
  6
CONTINUOUS
 62
     7
 10
-212.5
 20
-12.5
 30
0.0
 11
-209.81984081939899
 21
-2.4975097656250109
 31
0.0
  0
LINE
  5
86
  8
DIMNSIONS
  6
CONTINUOUS
 62
     7
 10
-212.5
 20
97.5
 30
0.0
 11
-209.81984081939899
 21
87.497509765624983
 31
0.0
  0
LINE
  5
87
  8
DIMNSIONS
  6
CONTINUOUS
 62
     7
 10
-212.5
 20
97.5
 30
0.0
 11
-215.18015918060101
 21
87.497509765624983
 31
0.0
  0
TEXT
  5
88
  8
DIMNSIONS
 62
     7
 10
-216.4755555555555
 20
31.916666666666671
 30
0.0
 40
10.85894097222222
  1
110
 50
90.0
 41
0.7
 11
-227.3344965277777
 21
31.916666666666671
 31
0.0
 73
     3
  0
LINE
  5
89
  8
DIMNSIONS
  6
CONTINUOUS
 62
     7
 10
-188.8408433100025
 20
-116.5
 30
0.0
 11
-220.5
 21
-116.5
 31
0.0
  0
LINE
  5
8A
  8
DIMNSIONS
  6
CONTINUOUS
 62
     7
 10
-195.5
 20
-112.5
 30
0.0
 11
-220.5
 21
-112.5
 31
0.0
  0
LINE
  5
8B
  8
DIMNSIONS
  6
CONTINUOUS
 62
     7
 10
-212.5
 20
-112.5
 30
0.0
 11
-212.5
 21
-116.5
 31
0.0
  0
LINE
  5
8C
  8
DIMNSIONS
  6
CONTINUOUS
 62
     7
 10
-212.5
 20
-116.5
 30
0.0
 11
-212.5
 21
-136.3111111111111
 31
0.0
  0
LINE
  5
8D
  8
DIMNSIONS
  6
CONTINUOUS
 62
     7
 10
-212.5
 20
-116.5
 30
0.0
 11
-209.81984081939899
 21
-126.502490234375
 31
0.0
  0
LINE
  5
8E
  8
DIMNSIONS
  6
CONTINUOUS
 62
     7
 10
-212.5
 20
-116.5
 30
0.0
 11
-215.18015918060101
 21
-126.502490234375
 31
0.0
  0
LINE
  5
8F
  8
DIMNSIONS
  6
CONTINUOUS
 62
     7
 10
-212.5
 20
-112.5
 30
0.0
 11
-212.5
 21
-92.5
 31
0.0
  0
LINE
  5
90
  8
DIMNSIONS
  6
CONTINUOUS
 62
     7
 10
-212.5
 20
-112.5
 30
0.0
 11
-215.18015918060101
 21
-102.497509765625
 31
0.0
  0
LINE
  5
91
  8
DIMNSIONS
  6
CONTINUOUS
 62
     7
 10
-212.5
 20
-112.5
 30
0.0
 11
-209.81984081939899
 21
-102.497509765625
 31
0.0
  0
TEXT
  5
92
  8
DIMNSIONS
 62
     7
 10
-216.4755555555555
 20
-136.3111111111111
 30
0.0
 40
10.85894097222222
  1
4
 50
90.0
 41
0.7
 11
-227.3344965277777
 21
-136.3111111111111
 31
0.0
 73
     3
  0
LINE
  5
93
  8
DIMNSIONS
  6
CONTINUOUS
 62
     7
 10
-195.5
 20
97.5
 30
0.0
 11
-220.5
 21
97.5
 31
0.0
  0
LINE
  5
94
  8
DIMNSIONS
  6
CONTINUOUS
 62
     7
 10
-167.46225929265199
 20
102.5
 30
0.0
 11
-220.5
 21
102.5
 31
0.0
  0
LINE
  5
95
  8
DIMNSIONS
  6
CONTINUOUS
 62
     7
 10
-212.5
 20
102.5
 30
0.0
 11
-212.5
 21
97.5
 31
0.0
  0
LINE
  5
96
  8
DIMNSIONS
  6
CONTINUOUS
 62
     7
 10
-212.5
 20
97.5
 30
0.0
 11
-212.5
 21
77.5
 31
0.0
  0
LINE
  5
97
  8
DIMNSIONS
  6
CONTINUOUS
 62
     7
 10
-212.5
 20
97.5
 30
0.0
 11
-209.81984081939899
 21
87.497509765624983
 31
0.0
  0
LINE
  5
98
  8
DIMNSIONS
  6
CONTINUOUS
 62
     7
 10
-212.5
 20
97.5
 30
0.0
 11
-215.18015918060101
 21
87.497509765624983
 31
0.0
  0
LINE
  5
99
  8
DIMNSIONS
  6
CONTINUOUS
 62
     7
 10
-212.5
 20
102.5
 30
0.0
 11
-212.5
 21
132.05555555555549
 31
0.0
  0
LINE
  5
9A
  8
DIMNSIONS
  6
CONTINUOUS
 62
     7
 10
-212.5
 20
102.5
 30
0.0
 11
-215.18015918060101
 21
112.502490234375
 31
0.0
  0
LINE
  5
9B
  8
DIMNSIONS
  6
CONTINUOUS
 62
     7
 10
-212.5
 20
102.5
 30
0.0
 11
-209.81984081939899
 21
112.502490234375
 31
0.0
  0
TEXT
  5
9C
  8
DIMNSIONS
 62
     7
 10
-216.4755555555555
 20
125.0
 30
0.0
 40
10.85894097222222
  1
5
 50
90.0
 41
0.7
 11
-227.3344965277777
 21
125.0
 31
0.0
 73
     3
  0
TEXT
  5
9D
  8
DATA
 62
     7
 10
-220.0
 20
-352.49317635928452
 30
0.0
 40
6.5153645833333318
  1
仕様および外観は予告なく変更されることがありますので、ご了承ください。
 41
0.7
 11
-220.0
 21
-345.97781177595118
 31
0.0
 73
     3
  0
TEXT
  5
9E
  8
DATA
 62
     7
 10
299.40000000000009
 20
-325.16082151912559
 30
0.0
 40
9.7730468750000004
  1
EXT-HDMI1.3-841
 41
0.7
 11
299.40000000000009
 21
-315.38777464412561
 31
0.0
 73
     3
  0
TEXT
  5
9F
  8
DATA
 62
     7
 10
299.55217350777099
 20
-293.40115418177447
 30
0.0
 40
9.7730468750000004
  1
Gefen
 41
0.7
 11
299.55217350777099
 21
-283.6281073067745
 31
0.0
 73
     3
  0
LINE
  5
A0
  8
DATA
  6
CONTINUOUS
 62
     7
 10
-187.5
 20
-112.5
 30
0.0
 11
-187.5
 21
-68.5
 31
0.0
  0
LINE
  5
A1
  8
DATA
  6
CONTINUOUS
 62
     7
 10
247.5
 20
-112.5
 30
0.0
 11
-187.5
 21
-112.5
 31
0.0
  0
LINE
  5
A2
  8
DATA
  6
CONTINUOUS
 62
     7
 10
247.5
 20
-68.5
 30
0.0
 11
247.5
 21
-112.5
 31
0.0
  0
LINE
  5
A3
  8
DATA
  6
CONTINUOUS
 62
     7
 10
-187.5
 20
-68.5
 30
0.0
 11
247.5
 21
-68.5
 31
0.0
  0
LINE
  5
A4
  8
DATA
  6
CONTINUOUS
 62
     7
 10
300.0
 20
-110.90000000000001
 30
0.0
 11
300.0
 21
-70.099999999999994
 31
0.0
  0
LINE
  5
A5
  8
DATA
  6
CONTINUOUS
 62
     7
 10
408.39999999999992
 20
-112.5
 30
0.0
 11
301.60000000000002
 21
-112.5
 31
0.0
  0
LINE
  5
A6
  8
DATA
  6
CONTINUOUS
 62
     7
 10
410.0
 20
-70.099999999999994
 30
0.0
 11
410.0
 21
-110.90000000000001
 31
0.0
  0
LINE
  5
A7
  8
DATA
  6
CONTINUOUS
 62
     7
 10
301.60000000000002
 20
-68.5
 30
0.0
 11
408.39999999999992
 21
-68.5
 31
0.0
  0
LINE
  5
A8
  8
DATA
  6
CONTINUOUS
 62
     7
 10
-187.5
 20
-12.5
 30
0.0
 11
-187.5
 21
97.5
 31
0.0
  0
LINE
  5
A9
  8
DATA
  6
CONTINUOUS
 62
     7
 10
247.5
 20
-12.5
 30
0.0
 11
-187.5
 21
-12.5
 31
0.0
  0
LINE
  5
AA
  8
DATA
  6
CONTINUOUS
 62
     7
 10
247.5
 20
97.5
 30
0.0
 11
247.5
 21
-12.5
 31
0.0
  0
LINE
  5
AB
  8
DATA
  6
CONTINUOUS
 62
     7
 10
-187.5
 20
97.5
 30
0.0
 11
247.5
 21
97.5
 31
0.0
  0
LINE
  5
AC
  8
DATA
  6
CONTINUOUS
 62
     7
 10
247.5
 20
-4.1999999999999877
 30
0.0
 11
-187.5
 21
-4.1999999999999877
 31
0.0
  0
LINE
  5
AD
  8
DATA
  6
CONTINUOUS
 62
     7
 10
-180.8408433100025
 20
-116.5
 30
0.0
 11
-182.3408433100025
 21
-112.5
 31
0.0
  0
LINE
  5
AE
  8
DATA
  6
CONTINUOUS
 62
     7
 10
-164.84084331000261
 20
-116.5
 30
0.0
 11
-163.34084331000261
 21
-112.5
 31
0.0
  0
LINE
  5
AF
  8
DATA
  6
CONTINUOUS
 62
     7
 10
-180.8408433100025
 20
-116.5
 30
0.0
 11
-164.84084331000261
 21
-116.5
 31
0.0
  0
LINE
  5
B0
  8
DATA
  6
CONTINUOUS
 62
     7
 10
240.8408433100027
 20
-116.5
 30
0.0
 11
242.34084331000261
 21
-112.5
 31
0.0
  0
LINE
  5
B1
  8
DATA
  6
CONTINUOUS
 62
     7
 10
224.84084331000261
 20
-116.5
 30
0.0
 11
223.34084331000261
 21
-112.5
 31
0.0
  0
LINE
  5
B2
  8
DATA
  6
CONTINUOUS
 62
     7
 10
240.8408433100027
 20
-116.5
 30
0.0
 11
224.84084331000261
 21
-116.5
 31
0.0
  0
CIRCLE
  5
B3
  8
DATA
  6
CONTINUOUS
 62
     7
 10
211.0
 20
-97.0
 30
0.0
 40
1.5
  0
CIRCLE
  5
B4
  8
DATA
  6
CONTINUOUS
 62
     7
 10
190.0
 20
-97.0
 30
0.0
 40
1.5
  0
CIRCLE
  5
B5
  8
DATA
  6
CONTINUOUS
 62
     7
 10
176.5
 20
-97.0
 30
0.0
 40
1.5
  0
CIRCLE
  5
B6
  8
DATA
  6
CONTINUOUS
 62
     7
 10
163.0
 20
-97.0
 30
0.0
 40
1.5
  0
CIRCLE
  5
B7
  8
DATA
  6
CONTINUOUS
 62
     7
 10
149.5
 20
-97.0
 30
0.0
 40
1.5
  0
CIRCLE
  5
B8
  8
DATA
  6
CONTINUOUS
 62
     7
 10
136.0
 20
-97.0
 30
0.0
 40
1.5
  0
CIRCLE
  5
B9
  8
DATA
  6
CONTINUOUS
 62
     7
 10
122.5
 20
-97.0
 30
0.0
 40
1.5
  0
CIRCLE
  5
BA
  8
DATA
  6
CONTINUOUS
 62
     7
 10
109.0
 20
-97.0
 30
0.0
 40
1.5
  0
CIRCLE
  5
BB
  8
DATA
  6
CONTINUOUS
 62
     7
 10
95.499999999999986
 20
-97.0
 30
0.0
 40
1.5
  0
CIRCLE
  5
BC
  8
DATA
  6
CONTINUOUS
 62
     7
 10
79.499999999999986
 20
-97.0
 30
0.0
 40
2.5
  0
CIRCLE
  5
BD
  8
DATA
  6
CONTINUOUS
 62
     7
 10
57.5
 20
-98.462244953256572
 30
0.0
 40
3.0
  0
CIRCLE
  5
BE
  8
DATA
  6
CONTINUOUS
 62
     7
 10
57.5
 20
-98.500000000000014
 30
0.0
 40
1.75
  0
TEXT
  5
BF
  8
DATA
 62
     7
 10
51.226331735124568
 20
-109.0781956708488
 30
0.0
 40
3.2576822916666659
  1
Ext-IR
 41
0.7
 11
51.226331735124568
 21
-105.8205133791821
 31
0.0
 73
     3
  0
TEXT
  5
C0
  8
DATA
 62
     7
 10
77.173185703012123
 20
-109.0781956708488
 30
0.0
 40
3.2576822916666659
  1
IR
 41
0.7
 11
77.173185703012123
 21
-105.8205133791821
 31
0.0
 73
     3
  0
TEXT
  5
C1
  8
DATA
 62
     7
 10
94.789819869751398
 20
-109.0781956708488
 30
0.0
 40
3.2576822916666659
  1
1
 41
0.7
 11
94.789819869751398
 21
-105.8205133791821
 31
0.0
 73
     3
  0
TEXT
  5
C2
  8
DATA
 62
     7
 10
108.2898198697514
 20
-109.0781956708488
 30
0.0
 40
3.2576822916666659
  1
2
 41
0.7
 11
108.2898198697514
 21
-105.8205133791821
 31
0.0
 73
     3
  0
TEXT
  5
C3
  8
DATA
 62
     7
 10
121.7898198697514
 20
-109.0781956708488
 30
0.0
 40
3.2576822916666659
  1
3
 41
0.7
 11
121.7898198697514
 21
-105.8205133791821
 31
0.0
 73
     3
  0
TEXT
  5
C4
  8
DATA
 62
     7
 10
135.2898198697514
 20
-109.0781956708488
 30
0.0
 40
3.2576822916666659
  1
4
 41
0.7
 11
135.2898198697514
 21
-105.8205133791821
 31
0.0
 73
     3
  0
TEXT
  5
C5
  8
DATA
 62
     7
 10
148.7898198697514
 20
-109.0781956708488
 30
0.0
 40
3.2576822916666659
  1
5
 41
0.7
 11
148.7898198697514
 21
-105.8205133791821
 31
0.0
 73
     3
  0
TEXT
  5
C6
  8
DATA
 62
     7
 10
162.2898198697514
 20
-109.0781956708488
 30
0.0
 40
3.2576822916666659
  1
6
 41
0.7
 11
162.2898198697514
 21
-105.8205133791821
 31
0.0
 73
     3
  0
TEXT
  5
C7
  8
DATA
 62
     7
 10
175.7898198697514
 20
-109.0781956708488
 30
0.0
 40
3.2576822916666659
  1
7
 41
0.7
 11
175.7898198697514
 21
-105.8205133791821
 31
0.0
 73
     3
  0
TEXT
  5
C8
  8
DATA
 62
     7
 10
189.2898198697514
 20
-109.0781956708488
 30
0.0
 40
3.2576822916666659
  1
8
 41
0.7
 11
189.2898198697514
 21
-105.8205133791821
 31
0.0
 73
     3
  0
TEXT
  5
C9
  8
DATA
 62
     7
 10
205.7652834008137
 20
-109.0781956708488
 30
0.0
 40
3.2576822916666659
  1
Power
 41
0.7
 11
205.7652834008137
 21
-105.8205133791821
 31
0.0
 73
     3
  0
TEXT
  5
CA
  8
DATA
 62
     7
 10
92.830318297086606
 20
-90.091663670252871
 30
0.0
 40
10.85894097222222
  1
8\U+00D71 Switcher
 41
0.7
 11
92.830318297086606
 21
-79.232722698030642
 31
0.0
 73
     3
  0
TEXT
  5
CB
  8
DATA
 62
     7
 10
187.78042943528629
 20
-88.567663670252855
 30
0.0
 40
7.6012586805555546
  1
for
 41
0.7
 11
187.78042943528629
 21
-80.966404989697324
 31
0.0
 73
     3
  0
TEXT
  5
CC
  8
DATA
 62
     7
 10
205.26957056471329
 20
-88.567663670252855
 30
0.0
 40
7.6012586805555546
  1
HDMI
 41
0.7
 11
205.26957056471329
 21
-80.966404989697324
 31
0.0
 73
     3
  0
TEXT
  5
CD
  8
DATA
 62
     7
 10
226.51107358821599
 20
-87.500863670252869
 30
0.0
 40
5.3208810763888881
  1
1.3
 41
0.7
 11
226.51107358821599
 21
-82.179982593863983
 31
0.0
 73
     3
  0
ARC
  5
CE
  8
DATA
  6
CONTINUOUS
 62
     7
 10
211.0
 20
-11.466904969837991
 30
0.0
 40
1.4999999999999969
 50
223.52966284401279
 51
316.47033715598718
  0
ARC
  5
CF
  8
DATA
  6
CONTINUOUS
 62
     7
 10
190.0
 20
-11.466904969837991
 30
0.0
 40
1.4999999999999969
 50
223.52966284401279
 51
316.47033715598718
  0
ARC
  5
D0
  8
DATA
  6
CONTINUOUS
 62
     7
 10
176.5
 20
-11.466904969837991
 30
0.0
 40
1.500000000000006
 50
223.5296628440305
 51
316.4703371559695
  0
ARC
  5
D1
  8
DATA
  6
CONTINUOUS
 62
     7
 10
163.0
 20
-11.466904969837991
 30
0.0
 40
1.500000000000006
 50
223.5296628440305
 51
316.4703371559695
  0
ARC
  5
D2
  8
DATA
  6
CONTINUOUS
 62
     7
 10
149.5
 20
-11.466904969837991
 30
0.0
 40
1.5000000000000031
 50
223.52966284402609
 51
316.47033715597388
  0
ARC
  5
D3
  8
DATA
  6
CONTINUOUS
 62
     7
 10
136.0
 20
-11.466904969837991
 30
0.0
 40
1.5000000000000031
 50
223.52966284402609
 51
316.47033715597388
  0
ARC
  5
D4
  8
DATA
  6
CONTINUOUS
 62
     7
 10
122.5
 20
-11.466904969837991
 30
0.0
 40
1.499999999999988
 50
223.5296628440266
 51
316.47033715597348
  0
ARC
  5
D5
  8
DATA
  6
CONTINUOUS
 62
     7
 10
109.0
 20
-11.466904969837991
 30
0.0
 40
1.499999999999998
 50
223.52966284402629
 51
316.47033715597371
  0
ARC
  5
D6
  8
DATA
  6
CONTINUOUS
 62
     7
 10
95.499999999999986
 20
-11.466904969837991
 30
0.0
 40
1.5000000000000011
 50
223.52966284402621
 51
316.47033715597388
  0
ARC
  5
D7
  8
DATA
  6
CONTINUOUS
 62
     7
 10
79.499999999999986
 20
-10.71325093451998
 30
0.0
 40
2.4999999999999978
 50
225.6185878460654
 51
314.38141215393478
  0
LINE
  5
D8
  8
DATA
  6
CONTINUOUS
 62
     7
 10
54.499999999999993
 20
-12.80000000000001
 30
0.0
 11
54.499999999999993
 21
-12.5
 31
0.0
  0
LINE
  5
D9
  8
DATA
  6
CONTINUOUS
 62
     7
 10
60.499762416666577
 20
-12.80000000000001
 30
0.0
 11
60.499762416666577
 21
-12.5
 31
0.0
  0
LINE
  5
DA
  8
DATA
  6
CONTINUOUS
 62
     7
 10
60.499762416666577
 20
-12.80000000000001
 30
0.0
 11
54.499999999999993
 21
-12.80000000000001
 31
0.0
  0
LINE
  5
DB
  8
DATA
  6
CONTINUOUS
 62
     7
 10
-187.5
 20
206.5
 30
0.0
 11
-187.5
 21
162.5
 31
0.0
  0
LINE
  5
DC
  8
DATA
  6
CONTINUOUS
 62
     7
 10
247.5
 20
206.5
 30
0.0
 11
-187.5
 21
206.5
 31
0.0
  0
LINE
  5
DD
  8
DATA
  6
CONTINUOUS
 62
     7
 10
247.5
 20
162.5
 30
0.0
 11
247.5
 21
206.5
 31
0.0
  0
LINE
  5
DE
  8
DATA
  6
CONTINUOUS
 62
     7
 10
-187.5
 20
162.5
 30
0.0
 11
247.5
 21
162.5
 31
0.0
  0
LINE
  5
DF
  8
DATA
  6
CONTINUOUS
 62
     7
 10
-180.8408433100025
 20
210.5
 30
0.0
 11
-182.3408433100025
 21
206.5
 31
0.0
  0
LINE
  5
E0
  8
DATA
  6
CONTINUOUS
 62
     7
 10
-164.84084331000261
 20
210.5
 30
0.0
 11
-163.34084331000261
 21
206.5
 31
0.0
  0
LINE
  5
E1
  8
DATA
  6
CONTINUOUS
 62
     7
 10
-180.8408433100025
 20
210.5
 30
0.0
 11
-164.84084331000261
 21
210.5
 31
0.0
  0
LINE
  5
E2
  8
DATA
  6
CONTINUOUS
 62
     7
 10
240.8408433100027
 20
210.5
 30
0.0
 11
242.34084331000261
 21
206.5
 31
0.0
  0
LINE
  5
E3
  8
DATA
  6
CONTINUOUS
 62
     7
 10
224.84084331000261
 20
210.5
 30
0.0
 11
223.34084331000261
 21
206.5
 31
0.0
  0
LINE
  5
E4
  8
DATA
  6
CONTINUOUS
 62
     7
 10
240.8408433100027
 20
210.5
 30
0.0
 11
224.84084331000261
 21
210.5
 31
0.0
  0
POLYLINE
  5
E5
  8
DATA
  6
CONTINUOUS
 62
     7
 66
     1
 10
0.0
 20
0.0
 30
0.0
 70
     1
  0
VERTEX
  5
2C1
  8
DATA
  6
CONTINUOUS
 62
     7
 10
-159.46225929265199
 20
181.41977635307839
 30
0.0
  0
VERTEX
  5
2C2
  8
DATA
  6
CONTINUOUS
 62
     7
 10
-157.012259292652
 20
182.83428451259289
 30
0.0
  0
VERTEX
  5
2C3
  8
DATA
  6
CONTINUOUS
 62
     7
 10
-154.5622592926517
 20
181.41977635307839
 30
0.0
  0
VERTEX
  5
2C4
  8
DATA
  6
CONTINUOUS
 62
     7
 10
-154.5622592926517
 20
178.5907600340492
 30
0.0
  0
VERTEX
  5
2C5
  8
DATA
  6
CONTINUOUS
 62
     7
 10
-157.012259292652
 20
177.17625187453459
 30
0.0
  0
VERTEX
  5
2C6
  8
DATA
  6
CONTINUOUS
 62
     7
 10
-159.46225929265199
 20
178.5907600340492
 30
0.0
  0
SEQEND
  5
2C7
  8
DATA
  6
CONTINUOUS
 62
     7
  0
CIRCLE
  5
EE
  8
DATA
  6
CONTINUOUS
 62
     7
 10
-157.012259292652
 20
180.00526819356369
 30
0.0
 40
1.2500000000001701
  0
POLYLINE
  5
EF
  8
DATA
  6
CONTINUOUS
 62
     7
 66
     1
 10
0.0
 20
0.0
 30
0.0
  0
VERTEX
  5
2C8
  8
DATA
  6
CONTINUOUS
 62
     7
 10
-165.09807369400619
 20
191.54572902482789
 30
0.0
  0
VERTEX
  5
2C9
  8
DATA
  6
CONTINUOUS
 62
     7
 10
-165.09807369400619
 20
187.54572902482789
 30
0.0
  0
VERTEX
  5
2CA
  8
DATA
  6
CONTINUOUS
 62
     7
 10
-149.09807369400531
 20
187.54572902482789
 30
0.0
  0
VERTEX
  5
2CB
  8
DATA
  6
CONTINUOUS
 62
     7
 10
-149.09807369400531
 20
191.54572902482789
 30
0.0
  0
SEQEND
  5
2CC
  8
DATA
  6
CONTINUOUS
 62
     7
  0
LINE
  5
F6
  8
DATA
  6
CONTINUOUS
 62
     7
 10
-151.5980736940061
 20
193.54572902482789
 30
0.0
 11
-162.5980736940059
 21
193.54572902482789
 31
0.0
  0
ARC
  5
F7
  8
DATA
  6
CONTINUOUS
 62
     7
 10
-166.3672573674755
 20
195.69470861666451
 30
0.0
 40
4.338762363909578
 50
287.0090081320962
 51
330.31060837608288
  0
ARC
  5
F8
  8
DATA
  6
CONTINUOUS
 62
     7
 10
-147.82889002053579
 20
195.69470861666451
 30
0.0
 40
4.3387623639100887
 50
209.689391623913
 51
252.99099186790059
  0
POLYLINE
  5
F9
  8
DATA
  6
CONTINUOUS
 62
     7
 66
     1
 10
0.0
 20
0.0
 30
0.0
 70
     1
  0
VERTEX
  5
2CD
  8
DATA
  6
CONTINUOUS
 62
     7
 10
-113.46225929265201
 20
181.41977635307839
 30
0.0
  0
VERTEX
  5
2CE
  8
DATA
  6
CONTINUOUS
 62
     7
 10
-111.0122592926521
 20
182.83428451259289
 30
0.0
  0
VERTEX
  5
2CF
  8
DATA
  6
CONTINUOUS
 62
     7
 10
-108.5622592926517
 20
181.41977635307839
 30
0.0
  0
VERTEX
  5
2D0
  8
DATA
  6
CONTINUOUS
 62
     7
 10
-108.5622592926517
 20
178.5907600340492
 30
0.0
  0
VERTEX
  5
2D1
  8
DATA
  6
CONTINUOUS
 62
     7
 10
-111.0122592926521
 20
177.17625187453459
 30
0.0
  0
VERTEX
  5
2D2
  8
DATA
  6
CONTINUOUS
 62
     7
 10
-113.46225929265201
 20
178.5907600340492
 30
0.0
  0
SEQEND
  5
2D3
  8
DATA
  6
CONTINUOUS
 62
     7
  0
CIRCLE
  5
102
  8
DATA
  6
CONTINUOUS
 62
     7
 10
-111.0122592926521
 20
180.00526819356369
 30
0.0
 40
1.2500000000001701
  0
POLYLINE
  5
103
  8
DATA
  6
CONTINUOUS
 62
     7
 66
     1
 10
0.0
 20
0.0
 30
0.0
  0
VERTEX
  5
2D4
  8
DATA
  6
CONTINUOUS
 62
     7
 10
-119.0980736940062
 20
191.54572902482789
 30
0.0
  0
VERTEX
  5
2D5
  8
DATA
  6
CONTINUOUS
 62
     7
 10
-119.0980736940062
 20
187.54572902482789
 30
0.0
  0
VERTEX
  5
2D6
  8
DATA
  6
CONTINUOUS
 62
     7
 10
-103.09807369400529
 20
187.54572902482789
 30
0.0
  0
VERTEX
  5
2D7
  8
DATA
  6
CONTINUOUS
 62
     7
 10
-103.09807369400529
 20
191.54572902482789
 30
0.0
  0
SEQEND
  5
2D8
  8
DATA
  6
CONTINUOUS
 62
     7
  0
LINE
  5
10A
  8
DATA
  6
CONTINUOUS
 62
     7
 10
-105.598073694006
 20
193.54572902482789
 30
0.0
 11
-116.5980736940059
 21
193.54572902482789
 31
0.0
  0
ARC
  5
10B
  8
DATA
  6
CONTINUOUS
 62
     7
 10
-120.3672573674755
 20
195.69470861666451
 30
0.0
 40
4.338762363909578
 50
287.0090081320962
 51
330.31060837608288
  0
ARC
  5
10C
  8
DATA
  6
CONTINUOUS
 62
     7
 10
-101.82889002053579
 20
195.69470861666451
 30
0.0
 40
4.3387623639100887
 50
209.689391623913
 51
252.99099186790059
  0
POLYLINE
  5
10D
  8
DATA
  6
CONTINUOUS
 62
     7
 66
     1
 10
0.0
 20
0.0
 30
0.0
 70
     1
  0
VERTEX
  5
2D9
  8
DATA
  6
CONTINUOUS
 62
     7
 10
-70.462259292652064
 20
181.41977635307839
 30
0.0
  0
VERTEX
  5
2DA
  8
DATA
  6
CONTINUOUS
 62
     7
 10
-68.012259292652089
 20
182.83428451259289
 30
0.0
  0
VERTEX
  5
2DB
  8
DATA
  6
CONTINUOUS
 62
     7
 10
-65.562259292651703
 20
181.41977635307839
 30
0.0
  0
VERTEX
  5
2DC
  8
DATA
  6
CONTINUOUS
 62
     7
 10
-65.562259292651703
 20
178.5907600340492
 30
0.0
  0
VERTEX
  5
2DD
  8
DATA
  6
CONTINUOUS
 62
     7
 10
-68.012259292652089
 20
177.17625187453459
 30
0.0
  0
VERTEX
  5
2DE
  8
DATA
  6
CONTINUOUS
 62
     7
 10
-70.462259292652064
 20
178.5907600340492
 30
0.0
  0
SEQEND
  5
2DF
  8
DATA
  6
CONTINUOUS
 62
     7
  0
CIRCLE
  5
116
  8
DATA
  6
CONTINUOUS
 62
     7
 10
-68.012259292652089
 20
180.00526819356369
 30
0.0
 40
1.2500000000001701
  0
POLYLINE
  5
117
  8
DATA
  6
CONTINUOUS
 62
     7
 66
     1
 10
0.0
 20
0.0
 30
0.0
  0
VERTEX
  5
2E0
  8
DATA
  6
CONTINUOUS
 62
     7
 10
-76.09807369400626
 20
191.54572902482789
 30
0.0
  0
VERTEX
  5
2E1
  8
DATA
  6
CONTINUOUS
 62
     7
 10
-76.09807369400626
 20
187.54572902482789
 30
0.0
  0
VERTEX
  5
2E2
  8
DATA
  6
CONTINUOUS
 62
     7
 10
-60.098073694005357
 20
187.54572902482789
 30
0.0
  0
VERTEX
  5
2E3
  8
DATA
  6
CONTINUOUS
 62
     7
 10
-60.098073694005357
 20
191.54572902482789
 30
0.0
  0
SEQEND
  5
2E4
  8
DATA
  6
CONTINUOUS
 62
     7
  0
LINE
  5
11E
  8
DATA
  6
CONTINUOUS
 62
     7
 10
-62.598073694006061
 20
193.54572902482789
 30
0.0
 11
-73.598073694005905
 21
193.54572902482789
 31
0.0
  0
ARC
  5
11F
  8
DATA
  6
CONTINUOUS
 62
     7
 10
-77.367257367475545
 20
195.69470861666451
 30
0.0
 40
4.338762363909578
 50
287.0090081320962
 51
330.31060837608288
  0
ARC
  5
120
  8
DATA
  6
CONTINUOUS
 62
     7
 10
-58.828890020535802
 20
195.69470861666451
 30
0.0
 40
4.3387623639100887
 50
209.689391623913
 51
252.99099186790059
  0
POLYLINE
  5
121
  8
DATA
  6
CONTINUOUS
 62
     7
 66
     1
 10
0.0
 20
0.0
 30
0.0
 70
     1
  0
VERTEX
  5
2E5
  8
DATA
  6
CONTINUOUS
 62
     7
 10
-27.462259292652071
 20
181.41977635307839
 30
0.0
  0
VERTEX
  5
2E6
  8
DATA
  6
CONTINUOUS
 62
     7
 10
-25.012259292652072
 20
182.83428451259289
 30
0.0
  0
VERTEX
  5
2E7
  8
DATA
  6
CONTINUOUS
 62
     7
 10
-22.562259292651721
 20
181.41977635307839
 30
0.0
  0
VERTEX
  5
2E8
  8
DATA
  6
CONTINUOUS
 62
     7
 10
-22.562259292651721
 20
178.5907600340492
 30
0.0
  0
VERTEX
  5
2E9
  8
DATA
  6
CONTINUOUS
 62
     7
 10
-25.012259292652072
 20
177.17625187453459
 30
0.0
  0
VERTEX
  5
2EA
  8
DATA
  6
CONTINUOUS
 62
     7
 10
-27.462259292652071
 20
178.5907600340492
 30
0.0
  0
SEQEND
  5
2EB
  8
DATA
  6
CONTINUOUS
 62
     7
  0
CIRCLE
  5
12A
  8
DATA
  6
CONTINUOUS
 62
     7
 10
-25.012259292652072
 20
180.00526819356369
 30
0.0
 40
1.2500000000001701
  0
POLYLINE
  5
12B
  8
DATA
  6
CONTINUOUS
 62
     7
 66
     1
 10
0.0
 20
0.0
 30
0.0
  0
VERTEX
  5
2EC
  8
DATA
  6
CONTINUOUS
 62
     7
 10
-33.09807369400626
 20
191.54572902482789
 30
0.0
  0
VERTEX
  5
2ED
  8
DATA
  6
CONTINUOUS
 62
     7
 10
-33.09807369400626
 20
187.54572902482789
 30
0.0
  0
VERTEX
  5
2EE
  8
DATA
  6
CONTINUOUS
 62
     7
 10
-17.09807369400535
 20
187.54572902482789
 30
0.0
  0
VERTEX
  5
2EF
  8
DATA
  6
CONTINUOUS
 62
     7
 10
-17.09807369400535
 20
191.54572902482789
 30
0.0
  0
SEQEND
  5
2F0
  8
DATA
  6
CONTINUOUS
 62
     7
  0
LINE
  5
132
  8
DATA
  6
CONTINUOUS
 62
     7
 10
-19.598073694006061
 20
193.54572902482789
 30
0.0
 11
-30.598073694005919
 21
193.54572902482789
 31
0.0
  0
ARC
  5
133
  8
DATA
  6
CONTINUOUS
 62
     7
 10
-34.367257367475538
 20
195.69470861666451
 30
0.0
 40
4.338762363909578
 50
287.0090081320962
 51
330.31060837608288
  0
ARC
  5
134
  8
DATA
  6
CONTINUOUS
 62
     7
 10
-15.828890020535811
 20
195.69470861666451
 30
0.0
 40
4.3387623639100887
 50
209.689391623913
 51
252.99099186790059
  0
POLYLINE
  5
135
  8
DATA
  6
CONTINUOUS
 62
     7
 66
     1
 10
0.0
 20
0.0
 30
0.0
 70
     1
  0
VERTEX
  5
2F1
  8
DATA
  6
CONTINUOUS
 62
     7
 10
15.537740707347931
 20
181.41977635307839
 30
0.0
  0
VERTEX
  5
2F2
  8
DATA
  6
CONTINUOUS
 62
     7
 10
17.987740707347921
 20
182.83428451259289
 30
0.0
  0
VERTEX
  5
2F3
  8
DATA
  6
CONTINUOUS
 62
     7
 10
20.43774070734829
 20
181.41977635307839
 30
0.0
  0
VERTEX
  5
2F4
  8
DATA
  6
CONTINUOUS
 62
     7
 10
20.43774070734829
 20
178.5907600340492
 30
0.0
  0
VERTEX
  5
2F5
  8
DATA
  6
CONTINUOUS
 62
     7
 10
17.987740707347921
 20
177.17625187453459
 30
0.0
  0
VERTEX
  5
2F6
  8
DATA
  6
CONTINUOUS
 62
     7
 10
15.537740707347931
 20
178.5907600340492
 30
0.0
  0
SEQEND
  5
2F7
  8
DATA
  6
CONTINUOUS
 62
     7
  0
CIRCLE
  5
13E
  8
DATA
  6
CONTINUOUS
 62
     7
 10
17.987740707347921
 20
180.00526819356369
 30
0.0
 40
1.2500000000001701
  0
POLYLINE
  5
13F
  8
DATA
  6
CONTINUOUS
 62
     7
 66
     1
 10
0.0
 20
0.0
 30
0.0
  0
VERTEX
  5
2F8
  8
DATA
  6
CONTINUOUS
 62
     7
 10
9.9019263059937401
 20
191.54572902482789
 30
0.0
  0
VERTEX
  5
2F9
  8
DATA
  6
CONTINUOUS
 62
     7
 10
9.9019263059937401
 20
187.54572902482789
 30
0.0
  0
VERTEX
  5
2FA
  8
DATA
  6
CONTINUOUS
 62
     7
 10
25.90192630599465
 20
187.54572902482789
 30
0.0
  0
VERTEX
  5
2FB
  8
DATA
  6
CONTINUOUS
 62
     7
 10
25.90192630599465
 20
191.54572902482789
 30
0.0
  0
SEQEND
  5
2FC
  8
DATA
  6
CONTINUOUS
 62
     7
  0
LINE
  5
146
  8
DATA
  6
CONTINUOUS
 62
     7
 10
23.401926305993928
 20
193.54572902482789
 30
0.0
 11
12.401926305994079
 21
193.54572902482789
 31
0.0
  0
ARC
  5
147
  8
DATA
  6
CONTINUOUS
 62
     7
 10
8.6327426325244545
 20
195.69470861666451
 30
0.0
 40
4.338762363909578
 50
287.0090081320962
 51
330.31060837608288
  0
ARC
  5
148
  8
DATA
  6
CONTINUOUS
 62
     7
 10
27.171109979464191
 20
195.69470861666451
 30
0.0
 40
4.3387623639100887
 50
209.689391623913
 51
252.99099186790059
  0
POLYLINE
  5
149
  8
DATA
  6
CONTINUOUS
 62
     7
 66
     1
 10
0.0
 20
0.0
 30
0.0
 70
     1
  0
VERTEX
  5
2FD
  8
DATA
  6
CONTINUOUS
 62
     7
 10
58.537740707347929
 20
181.41977635307839
 30
0.0
  0
VERTEX
  5
2FE
  8
DATA
  6
CONTINUOUS
 62
     7
 10
60.987740707347918
 20
182.83428451259289
 30
0.0
  0
VERTEX
  5
2FF
  8
DATA
  6
CONTINUOUS
 62
     7
 10
63.437740707348283
 20
181.41977635307839
 30
0.0
  0
VERTEX
  5
300
  8
DATA
  6
CONTINUOUS
 62
     7
 10
63.437740707348283
 20
178.5907600340492
 30
0.0
  0
VERTEX
  5
301
  8
DATA
  6
CONTINUOUS
 62
     7
 10
60.987740707347918
 20
177.17625187453459
 30
0.0
  0
VERTEX
  5
302
  8
DATA
  6
CONTINUOUS
 62
     7
 10
58.537740707347929
 20
178.5907600340492
 30
0.0
  0
SEQEND
  5
303
  8
DATA
  6
CONTINUOUS
 62
     7
  0
CIRCLE
  5
152
  8
DATA
  6
CONTINUOUS
 62
     7
 10
60.987740707347918
 20
180.00526819356369
 30
0.0
 40
1.2500000000001701
  0
POLYLINE
  5
153
  8
DATA
  6
CONTINUOUS
 62
     7
 66
     1
 10
0.0
 20
0.0
 30
0.0
  0
VERTEX
  5
304
  8
DATA
  6
CONTINUOUS
 62
     7
 10
52.90192630599374
 20
191.54572902482789
 30
0.0
  0
VERTEX
  5
305
  8
DATA
  6
CONTINUOUS
 62
     7
 10
52.90192630599374
 20
187.54572902482789
 30
0.0
  0
VERTEX
  5
306
  8
DATA
  6
CONTINUOUS
 62
     7
 10
68.901926305994635
 20
187.54572902482789
 30
0.0
  0
VERTEX
  5
307
  8
DATA
  6
CONTINUOUS
 62
     7
 10
68.901926305994635
 20
191.54572902482789
 30
0.0
  0
SEQEND
  5
308
  8
DATA
  6
CONTINUOUS
 62
     7
  0
LINE
  5
15A
  8
DATA
  6
CONTINUOUS
 62
     7
 10
66.401926305993925
 20
193.54572902482789
 30
0.0
 11
55.401926305994081
 21
193.54572902482789
 31
0.0
  0
ARC
  5
15B
  8
DATA
  6
CONTINUOUS
 62
     7
 10
51.632742632524462
 20
195.69470861666451
 30
0.0
 40
4.338762363909578
 50
287.0090081320962
 51
330.31060837608288
  0
ARC
  5
15C
  8
DATA
  6
CONTINUOUS
 62
     7
 10
70.171109979464191
 20
195.69470861666451
 30
0.0
 40
4.3387623639100887
 50
209.689391623913
 51
252.99099186790059
  0
POLYLINE
  5
15D
  8
DATA
  6
CONTINUOUS
 62
     7
 66
     1
 10
0.0
 20
0.0
 30
0.0
 70
     1
  0
VERTEX
  5
309
  8
DATA
  6
CONTINUOUS
 62
     7
 10
101.53774070734789
 20
181.41977635307839
 30
0.0
  0
VERTEX
  5
30A
  8
DATA
  6
CONTINUOUS
 62
     7
 10
103.9877407073479
 20
182.83428451259289
 30
0.0
  0
VERTEX
  5
30B
  8
DATA
  6
CONTINUOUS
 62
     7
 10
106.4377407073483
 20
181.41977635307839
 30
0.0
  0
VERTEX
  5
30C
  8
DATA
  6
CONTINUOUS
 62
     7
 10
106.4377407073483
 20
178.5907600340492
 30
0.0
  0
VERTEX
  5
30D
  8
DATA
  6
CONTINUOUS
 62
     7
 10
103.9877407073479
 20
177.17625187453459
 30
0.0
  0
VERTEX
  5
30E
  8
DATA
  6
CONTINUOUS
 62
     7
 10
101.53774070734789
 20
178.5907600340492
 30
0.0
  0
SEQEND
  5
30F
  8
DATA
  6
CONTINUOUS
 62
     7
  0
CIRCLE
  5
166
  8
DATA
  6
CONTINUOUS
 62
     7
 10
103.9877407073479
 20
180.00526819356369
 30
0.0
 40
1.2500000000001701
  0
POLYLINE
  5
167
  8
DATA
  6
CONTINUOUS
 62
     7
 66
     1
 10
0.0
 20
0.0
 30
0.0
  0
VERTEX
  5
310
  8
DATA
  6
CONTINUOUS
 62
     7
 10
95.901926305993726
 20
191.54572902482789
 30
0.0
  0
VERTEX
  5
311
  8
DATA
  6
CONTINUOUS
 62
     7
 10
95.901926305993726
 20
187.54572902482789
 30
0.0
  0
VERTEX
  5
312
  8
DATA
  6
CONTINUOUS
 62
     7
 10
111.90192630599461
 20
187.54572902482789
 30
0.0
  0
VERTEX
  5
313
  8
DATA
  6
CONTINUOUS
 62
     7
 10
111.90192630599461
 20
191.54572902482789
 30
0.0
  0
SEQEND
  5
314
  8
DATA
  6
CONTINUOUS
 62
     7
  0
LINE
  5
16E
  8
DATA
  6
CONTINUOUS
 62
     7
 10
109.4019263059939
 20
193.54572902482789
 30
0.0
 11
98.401926305994067
 21
193.54572902482789
 31
0.0
  0
ARC
  5
16F
  8
DATA
  6
CONTINUOUS
 62
     7
 10
94.632742632524426
 20
195.69470861666451
 30
0.0
 40
4.338762363909578
 50
287.0090081320962
 51
330.31060837608288
  0
ARC
  5
170
  8
DATA
  6
CONTINUOUS
 62
     7
 10
113.17110997946421
 20
195.69470861666451
 30
0.0
 40
4.3387623639100887
 50
209.689391623913
 51
252.99099186790059
  0
POLYLINE
  5
171
  8
DATA
  6
CONTINUOUS
 62
     7
 66
     1
 10
0.0
 20
0.0
 30
0.0
 70
     1
  0
VERTEX
  5
315
  8
DATA
  6
CONTINUOUS
 62
     7
 10
144.53774070734789
 20
181.41977635307839
 30
0.0
  0
VERTEX
  5
316
  8
DATA
  6
CONTINUOUS
 62
     7
 10
146.98774070734791
 20
182.83428451259289
 30
0.0
  0
VERTEX
  5
317
  8
DATA
  6
CONTINUOUS
 62
     7
 10
149.4377407073483
 20
181.41977635307839
 30
0.0
  0
VERTEX
  5
318
  8
DATA
  6
CONTINUOUS
 62
     7
 10
149.4377407073483
 20
178.5907600340492
 30
0.0
  0
VERTEX
  5
319
  8
DATA
  6
CONTINUOUS
 62
     7
 10
146.98774070734791
 20
177.17625187453459
 30
0.0
  0
VERTEX
  5
31A
  8
DATA
  6
CONTINUOUS
 62
     7
 10
144.53774070734789
 20
178.5907600340492
 30
0.0
  0
SEQEND
  5
31B
  8
DATA
  6
CONTINUOUS
 62
     7
  0
CIRCLE
  5
17A
  8
DATA
  6
CONTINUOUS
 62
     7
 10
146.98774070734791
 20
180.00526819356369
 30
0.0
 40
1.2500000000001701
  0
POLYLINE
  5
17B
  8
DATA
  6
CONTINUOUS
 62
     7
 66
     1
 10
0.0
 20
0.0
 30
0.0
  0
VERTEX
  5
31C
  8
DATA
  6
CONTINUOUS
 62
     7
 10
138.9019263059937
 20
191.54572902482789
 30
0.0
  0
VERTEX
  5
31D
  8
DATA
  6
CONTINUOUS
 62
     7
 10
138.9019263059937
 20
187.54572902482789
 30
0.0
  0
VERTEX
  5
31E
  8
DATA
  6
CONTINUOUS
 62
     7
 10
154.90192630599461
 20
187.54572902482789
 30
0.0
  0
VERTEX
  5
31F
  8
DATA
  6
CONTINUOUS
 62
     7
 10
154.90192630599461
 20
191.54572902482789
 30
0.0
  0
SEQEND
  5
320
  8
DATA
  6
CONTINUOUS
 62
     7
  0
LINE
  5
182
  8
DATA
  6
CONTINUOUS
 62
     7
 10
152.4019263059939
 20
193.54572902482789
 30
0.0
 11
141.4019263059941
 21
193.54572902482789
 31
0.0
  0
ARC
  5
183
  8
DATA
  6
CONTINUOUS
 62
     7
 10
137.6327426325245
 20
195.69470861666451
 30
0.0
 40
4.338762363909578
 50
287.0090081320962
 51
330.31060837608288
  0
ARC
  5
184
  8
DATA
  6
CONTINUOUS
 62
     7
 10
156.17110997946409
 20
195.69470861666451
 30
0.0
 40
4.3387623639100887
 50
209.689391623913
 51
252.99099186790059
  0
POLYLINE
  5
185
  8
DATA
  6
CONTINUOUS
 62
     7
 66
     1
 10
0.0
 20
0.0
 30
0.0
 70
     1
  0
VERTEX
  5
321
  8
DATA
  6
CONTINUOUS
 62
     7
 10
187.53774070734801
 20
181.41977635307839
 30
0.0
  0
VERTEX
  5
322
  8
DATA
  6
CONTINUOUS
 62
     7
 10
189.987740707348
 20
182.83428451259289
 30
0.0
  0
VERTEX
  5
323
  8
DATA
  6
CONTINUOUS
 62
     7
 10
192.4377407073483
 20
181.41977635307839
 30
0.0
  0
VERTEX
  5
324
  8
DATA
  6
CONTINUOUS
 62
     7
 10
192.4377407073483
 20
178.5907600340492
 30
0.0
  0
VERTEX
  5
325
  8
DATA
  6
CONTINUOUS
 62
     7
 10
189.987740707348
 20
177.17625187453459
 30
0.0
  0
VERTEX
  5
326
  8
DATA
  6
CONTINUOUS
 62
     7
 10
187.53774070734801
 20
178.5907600340492
 30
0.0
  0
SEQEND
  5
327
  8
DATA
  6
CONTINUOUS
 62
     7
  0
CIRCLE
  5
18E
  8
DATA
  6
CONTINUOUS
 62
     7
 10
189.987740707348
 20
180.00526819356369
 30
0.0
 40
1.2500000000001701
  0
POLYLINE
  5
18F
  8
DATA
  6
CONTINUOUS
 62
     7
 66
     1
 10
0.0
 20
0.0
 30
0.0
  0
VERTEX
  5
328
  8
DATA
  6
CONTINUOUS
 62
     7
 10
181.9019263059937
 20
191.54572902482789
 30
0.0
  0
VERTEX
  5
329
  8
DATA
  6
CONTINUOUS
 62
     7
 10
181.9019263059937
 20
187.54572902482789
 30
0.0
  0
VERTEX
  5
32A
  8
DATA
  6
CONTINUOUS
 62
     7
 10
197.90192630599461
 20
187.54572902482789
 30
0.0
  0
VERTEX
  5
32B
  8
DATA
  6
CONTINUOUS
 62
     7
 10
197.90192630599461
 20
191.54572902482789
 30
0.0
  0
SEQEND
  5
32C
  8
DATA
  6
CONTINUOUS
 62
     7
  0
LINE
  5
196
  8
DATA
  6
CONTINUOUS
 62
     7
 10
195.4019263059939
 20
193.54572902482789
 30
0.0
 11
184.4019263059941
 21
193.54572902482789
 31
0.0
  0
ARC
  5
197
  8
DATA
  6
CONTINUOUS
 62
     7
 10
180.63274263252441
 20
195.69470861666451
 30
0.0
 40
4.338762363909578
 50
287.0090081320962
 51
330.31060837608288
  0
ARC
  5
198
  8
DATA
  6
CONTINUOUS
 62
     7
 10
199.17110997946409
 20
195.69470861666451
 30
0.0
 40
4.3387623639100887
 50
209.689391623913
 51
252.99099186790059
  0
CIRCLE
  5
199
  8
DATA
  6
CONTINUOUS
 62
     7
 10
230.32286925172849
 20
187.52569960175379
 30
0.0
 40
3.1499999999999768
  0
CIRCLE
  5
19A
  8
DATA
  6
CONTINUOUS
 62
     7
 10
230.32286925172849
 20
187.5756996016398
 30
0.0
 40
0.5
  0
TEXT
  5
19B
  8
DATA
 62
     7
 10
-148.55020895623949
 20
203.13721100561949
 30
0.0
 40
3.2576822916666659
  1
HDMI Out
 50
180.0
 41
0.7
 11
-148.55020895623949
 21
199.87952871395279
 31
0.0
 73
     3
  0
TEXT
  5
19C
  8
DATA
 62
     7
 10
-105.7409252055664
 20
203.13721100561949
 30
0.0
 40
3.2576822916666659
  1
In 8  
 50
180.0
 41
0.7
 11
-105.7409252055664
 21
199.87952871395279
 31
0.0
 73
     3
  0
TEXT
  5
19D
  8
DATA
 62
     7
 10
-62.74092520556642
 20
203.13721100561949
 30
0.0
 40
3.2576822916666659
  1
In 7  
 50
180.0
 41
0.7
 11
-62.74092520556642
 21
199.87952871395279
 31
0.0
 73
     3
  0
TEXT
  5
19E
  8
DATA
 62
     7
 10
-19.74092520556643
 20
203.13721100561949
 30
0.0
 40
3.2576822916666659
  1
In 6  
 50
180.0
 41
0.7
 11
-19.74092520556643
 21
199.87952871395279
 31
0.0
 73
     3
  0
TEXT
  5
19F
  8
DATA
 62
     7
 10
23.25907479443357
 20
203.13721100561949
 30
0.0
 40
3.2576822916666659
  1
In 5  
 50
180.0
 41
0.7
 11
23.25907479443357
 21
199.87952871395279
 31
0.0
 73
     3
  0
TEXT
  5
1A0
  8
DATA
 62
     7
 10
66.259074794433573
 20
203.13721100561949
 30
0.0
 40
3.2576822916666659
  1
In 4  
 50
180.0
 41
0.7
 11
66.259074794433573
 21
199.87952871395279
 31
0.0
 73
     3
  0
TEXT
  5
1A1
  8
DATA
 62
     7
 10
109.2590747944335
 20
203.13721100561949
 30
0.0
 40
3.2576822916666659
  1
In 3  
 50
180.0
 41
0.7
 11
109.2590747944335
 21
199.87952871395279
 31
0.0
 73
     3
  0
TEXT
  5
1A2
  8
DATA
 62
     7
 10
152.2590747944335
 20
203.13721100561949
 30
0.0
 40
3.2576822916666659
  1
In 2  
 50
180.0
 41
0.7
 11
152.2590747944335
 21
199.87952871395279
 31
0.0
 73
     3
  0
TEXT
  5
1A3
  8
DATA
 62
     7
 10
195.25907479443359
 20
203.13721100561949
 30
0.0
 40
3.2576822916666659
  1
In 1  
 50
180.0
 41
0.7
 11
195.25907479443359
 21
199.87952871395279
 31
0.0
 73
     3
  0
TEXT
  5
1A4
  8
DATA
 62
     7
 10
235.2361284199165
 20
203.13721100561949
 30
0.0
 40
3.2576822916666659
  1
5V DC
 50
180.0
 41
0.7
 11
235.2361284199165
 21
199.87952871395279
 31
0.0
 73
     3
  0
CIRCLE
  5
1A5
  8
DATA
  6
CONTINUOUS
 62
     7
 10
-16.309716921890519
 20
171.9260769107054
 30
0.0
 40
1.1750000000000389
  0
POLYLINE
  5
1A6
  8
DATA
  6
CONTINUOUS
 62
     7
 66
     1
 10
0.0
 20
0.0
 30
0.0
 70
     1
  0
VERTEX
  5
32D
  8
DATA
  6
CONTINUOUS
 62
     7
 10
-16.309716921890519
 20
169.22607691070559
 30
0.0
  0
VERTEX
  5
32E
  8
DATA
  6
CONTINUOUS
 62
     7
 10
-13.97144833167274
 20
170.5760769107055
 30
0.0
  0
VERTEX
  5
32F
  8
DATA
  6
CONTINUOUS
 62
     7
 10
-13.97144833167274
 20
173.2760769107052
 30
0.0
  0
VERTEX
  5
330
  8
DATA
  6
CONTINUOUS
 62
     7
 10
-16.309716921890519
 20
174.62607691070519
 30
0.0
  0
VERTEX
  5
331
  8
DATA
  6
CONTINUOUS
 62
     7
 10
-18.64798551210853
 20
173.2760769107052
 30
0.0
  0
VERTEX
  5
332
  8
DATA
  6
CONTINUOUS
 62
     7
 10
-18.64798551210853
 20
170.5760769107055
 30
0.0
  0
SEQEND
  5
333
  8
DATA
  6
CONTINUOUS
 62
     7
  0
CIRCLE
  5
1AF
  8
DATA
  6
CONTINUOUS
 62
     7
 10
8.6902830781095002
 20
171.9260769107054
 30
0.0
 40
1.175000000000068
  0
POLYLINE
  5
1B0
  8
DATA
  6
CONTINUOUS
 62
     7
 66
     1
 10
0.0
 20
0.0
 30
0.0
 70
     1
  0
VERTEX
  5
334
  8
DATA
  6
CONTINUOUS
 62
     7
 10
8.6902830781095002
 20
169.22607691070559
 30
0.0
  0
VERTEX
  5
335
  8
DATA
  6
CONTINUOUS
 62
     7
 10
11.02855166832742
 20
170.5760769107055
 30
0.0
  0
VERTEX
  5
336
  8
DATA
  6
CONTINUOUS
 62
     7
 10
11.02855166832742
 20
173.2760769107052
 30
0.0
  0
VERTEX
  5
337
  8
DATA
  6
CONTINUOUS
 62
     7
 10
8.6902830781095002
 20
174.62607691070519
 30
0.0
  0
VERTEX
  5
338
  8
DATA
  6
CONTINUOUS
 62
     7
 10
6.3520144878914646
 20
173.2760769107052
 30
0.0
  0
VERTEX
  5
339
  8
DATA
  6
CONTINUOUS
 62
     7
 10
6.3520144878914646
 20
170.5760769107055
 30
0.0
  0
SEQEND
  5
33A
  8
DATA
  6
CONTINUOUS
 62
     7
  0
LINE
  5
1B9
  8
DATA
  6
CONTINUOUS
 62
     7
 10
-9.4114801320792196
 20
175.92607691070521
 30
0.0
 11
1.7920462882979959
 21
175.92607691070521
 31
0.0
  0
LINE
  5
1BA
  8
DATA
  6
CONTINUOUS
 62
     7
 10
2.604546288297882
 20
167.9260769107056
 30
0.0
 11
-10.22398013207922
 21
167.9260769107056
 31
0.0
  0
LINE
  5
1BB
  8
DATA
  6
CONTINUOUS
 62
     7
 10
3.1752631355495562
 20
174.74220454308821
 30
0.0
 11
3.9877631355494421
 21
169.5422045430887
 31
0.0
  0
LINE
  5
1BC
  8
DATA
  6
CONTINUOUS
 62
     7
 10
-11.60719697933078
 20
169.5422045430887
 30
0.0
 11
-10.79469697933078
 21
174.74220454308821
 31
0.0
  0
CIRCLE
  5
1BD
  8
DATA
  6
CONTINUOUS
 62
     7
 10
-3.7830871514157418
 20
170.2897687395519
 30
0.0
 40
0.5
  0
ARC
  5
1BE
  8
DATA
  6
CONTINUOUS
 62
     7
 10
2.604546288297882
 20
169.3260769107055
 30
0.0
 40
1.399999999999977
 50
270.0
 51
8.8806591505205574
  0
ARC
  5
1BF
  8
DATA
  6
CONTINUOUS
 62
     7
 10
-10.22398013207922
 20
169.3260769107055
 30
0.0
 40
1.400000000000019
 50
171.1193408494795
 51
270.0
  0
ARC
  5
1C0
  8
DATA
  6
CONTINUOUS
 62
     7
 10
1.7920462882979959
 20
174.5260769107052
 30
0.0
 40
1.4000000000000199
 50
8.8806591505208186
 51
90.0
  0
ARC
  5
1C1
  8
DATA
  6
CONTINUOUS
 62
     7
 10
-9.4114801320792196
 20
174.5260769107052
 30
0.0
 40
1.400000000000041
 50
90.0
 51
171.11934084947919
  0
LINE
  5
1C2
  8
DATA
  6
CONTINUOUS
 62
     7
 10
-10.968520852544801
 20
177.92607691070521
 30
0.0
 11
3.349087008763461
 21
177.92607691070521
 31
0.0
  0
LINE
  5
1C3
  8
DATA
  6
CONTINUOUS
 62
     7
 10
4.3679287293598463
 20
165.92607691070549
 30
0.0
 11
-11.98736257314115
 21
165.92607691070549
 31
0.0
  0
LINE
  5
1C4
  8
DATA
  6
CONTINUOUS
 62
     7
 10
6.33977395650325
 20
168.26048145641661
 30
0.0
 11
4.926563190478106
 21
176.59360054727401
 31
0.0
  0
LINE
  5
1C5
  8
DATA
  6
CONTINUOUS
 62
     7
 10
-13.959207800284419
 20
168.26048145641661
 30
0.0
 11
-12.545997034259379
 21
176.59360054727401
 31
0.0
  0
ARC
  5
1C6
  8
DATA
  6
CONTINUOUS
 62
     7
 10
4.3679287293598463
 20
167.9260769107056
 30
0.0
 40
2.000000000000056
 50
270.0
 51
9.6251929436205064
  0
ARC
  5
1C7
  8
DATA
  6
CONTINUOUS
 62
     7
 10
-11.98736257314115
 20
167.9260769107056
 30
0.0
 40
1.999999999999958
 50
170.37480705637881
 51
270.0
  0
ARC
  5
1C8
  8
DATA
  6
CONTINUOUS
 62
     7
 10
3.3490870087633482
 20
176.3260769107053
 30
0.0
 40
1.6000000000001151
 50
9.6251929436209256
 51
89.999999999995936
  0
ARC
  5
1C9
  8
DATA
  6
CONTINUOUS
 62
     7
 10
-10.968520852544801
 20
176.3260769107053
 30
0.0
 40
1.5999999999999801
 50
90.0
 51
170.3748070563781
  0
CIRCLE
  5
1CA
  8
DATA
  6
CONTINUOUS
 62
     7
 10
-1.283087151415742
 20
170.2897687395519
 30
0.0
 40
0.5
  0
CIRCLE
  5
1CB
  8
DATA
  6
CONTINUOUS
 62
     7
 10
1.2169128485842571
 20
170.2897687395519
 30
0.0
 40
0.5
  0
CIRCLE
  5
1CC
  8
DATA
  6
CONTINUOUS
 62
     7
 10
-6.2830871514157423
 20
170.2897687395519
 30
0.0
 40
0.5
  0
CIRCLE
  5
1CD
  8
DATA
  6
CONTINUOUS
 62
     7
 10
-8.7830871514157423
 20
170.2897687395519
 30
0.0
 40
0.5
  0
CIRCLE
  5
1CE
  8
DATA
  6
CONTINUOUS
 62
     7
 10
-2.5875759753444361
 20
173.90828915831429
 30
0.0
 40
0.5
  0
CIRCLE
  5
1CF
  8
DATA
  6
CONTINUOUS
 62
     7
 10
-0.0875759753444356
 20
173.90828915831429
 30
0.0
 40
0.5
  0
CIRCLE
  5
1D0
  8
DATA
  6
CONTINUOUS
 62
     7
 10
-5.0875759753444347
 20
173.90828915831429
 30
0.0
 40
0.5
  0
CIRCLE
  5
1D1
  8
DATA
  6
CONTINUOUS
 62
     7
 10
-7.5875759753444347
 20
173.90828915831429
 30
0.0
 40
0.5
  0
TEXT
  5
1D2
  8
DATA
 62
     7
 10
0.7464183280815893
 20
181.59669427670511
 30
0.0
 40
2.4432617187500001
  1
RS-232
 50
180.0
 41
0.7
 11
0.7464183280815888
 21
179.15343255795511
 31
0.0
 73
     3
  0
LINE
  5
1D3
  8
DATA
  6
CONTINUOUS
 62
     7
 10
-159.46225929265199
 20
102.5
 30
0.0
 11
-159.46225929265199
 21
97.5
 31
0.0
  0
LINE
  5
1D4
  8
DATA
  6
CONTINUOUS
 62
     7
 10
-154.5622592926517
 20
102.5
 30
0.0
 11
-154.5622592926517
 21
97.5
 31
0.0
  0
LINE
  5
1D5
  8
DATA
  6
CONTINUOUS
 62
     7
 10
-159.46225929265199
 20
102.5
 30
0.0
 11
-154.5622592926517
 21
102.5
 31
0.0
  0
LINE
  5
1D6
  8
DATA
  6
CONTINUOUS
 62
     7
 10
-113.46225929265201
 20
102.5
 30
0.0
 11
-113.46225929265201
 21
97.5
 31
0.0
  0
LINE
  5
1D7
  8
DATA
  6
CONTINUOUS
 62
     7
 10
-108.5622592926517
 20
102.5
 30
0.0
 11
-108.5622592926517
 21
97.5
 31
0.0
  0
LINE
  5
1D8
  8
DATA
  6
CONTINUOUS
 62
     7
 10
-113.46225929265201
 20
102.5
 30
0.0
 11
-108.5622592926517
 21
102.5
 31
0.0
  0
LINE
  5
1D9
  8
DATA
  6
CONTINUOUS
 62
     7
 10
-70.462259292652064
 20
102.5
 30
0.0
 11
-70.462259292652064
 21
97.5
 31
0.0
  0
LINE
  5
1DA
  8
DATA
  6
CONTINUOUS
 62
     7
 10
-65.562259292651703
 20
102.5
 30
0.0
 11
-65.562259292651703
 21
97.5
 31
0.0
  0
LINE
  5
1DB
  8
DATA
  6
CONTINUOUS
 62
     7
 10
-70.462259292652064
 20
102.5
 30
0.0
 11
-65.562259292651703
 21
102.5
 31
0.0
  0
LINE
  5
1DC
  8
DATA
  6
CONTINUOUS
 62
     7
 10
-27.462259292652071
 20
102.5
 30
0.0
 11
-27.462259292652071
 21
97.5
 31
0.0
  0
LINE
  5
1DD
  8
DATA
  6
CONTINUOUS
 62
     7
 10
-22.562259292651721
 20
102.5
 30
0.0
 11
-22.562259292651721
 21
97.5
 31
0.0
  0
LINE
  5
1DE
  8
DATA
  6
CONTINUOUS
 62
     7
 10
-27.462259292652071
 20
102.5
 30
0.0
 11
-22.562259292651721
 21
102.5
 31
0.0
  0
LINE
  5
1DF
  8
DATA
  6
CONTINUOUS
 62
     7
 10
15.537740707347931
 20
102.5
 30
0.0
 11
15.537740707347931
 21
97.5
 31
0.0
  0
LINE
  5
1E0
  8
DATA
  6
CONTINUOUS
 62
     7
 10
20.43774070734829
 20
102.5
 30
0.0
 11
20.43774070734829
 21
97.5
 31
0.0
  0
LINE
  5
1E1
  8
DATA
  6
CONTINUOUS
 62
     7
 10
15.537740707347931
 20
102.5
 30
0.0
 11
20.43774070734829
 21
102.5
 31
0.0
  0
LINE
  5
1E2
  8
DATA
  6
CONTINUOUS
 62
     7
 10
58.537740707347929
 20
102.5
 30
0.0
 11
58.537740707347929
 21
97.5
 31
0.0
  0
LINE
  5
1E3
  8
DATA
  6
CONTINUOUS
 62
     7
 10
63.437740707348283
 20
102.5
 30
0.0
 11
63.437740707348283
 21
97.5
 31
0.0
  0
LINE
  5
1E4
  8
DATA
  6
CONTINUOUS
 62
     7
 10
58.537740707347929
 20
102.5
 30
0.0
 11
63.437740707348283
 21
102.5
 31
0.0
  0
LINE
  5
1E5
  8
DATA
  6
CONTINUOUS
 62
     7
 10
101.53774070734789
 20
102.5
 30
0.0
 11
101.53774070734789
 21
97.5
 31
0.0
  0
LINE
  5
1E6
  8
DATA
  6
CONTINUOUS
 62
     7
 10
106.4377407073483
 20
102.5
 30
0.0
 11
106.4377407073483
 21
97.5
 31
0.0
  0
LINE
  5
1E7
  8
DATA
  6
CONTINUOUS
 62
     7
 10
101.53774070734789
 20
102.5
 30
0.0
 11
106.4377407073483
 21
102.5
 31
0.0
  0
LINE
  5
1E8
  8
DATA
  6
CONTINUOUS
 62
     7
 10
144.53774070734789
 20
102.5
 30
0.0
 11
144.53774070734789
 21
97.5
 31
0.0
  0
LINE
  5
1E9
  8
DATA
  6
CONTINUOUS
 62
     7
 10
149.4377407073483
 20
102.5
 30
0.0
 11
149.4377407073483
 21
97.5
 31
0.0
  0
LINE
  5
1EA
  8
DATA
  6
CONTINUOUS
 62
     7
 10
144.53774070734789
 20
102.5
 30
0.0
 11
149.4377407073483
 21
102.5
 31
0.0
  0
LINE
  5
1EB
  8
DATA
  6
CONTINUOUS
 62
     7
 10
187.53774070734801
 20
102.5
 30
0.0
 11
187.53774070734801
 21
97.5
 31
0.0
  0
LINE
  5
1EC
  8
DATA
  6
CONTINUOUS
 62
     7
 10
192.4377407073483
 20
102.5
 30
0.0
 11
192.4377407073483
 21
97.5
 31
0.0
  0
LINE
  5
1ED
  8
DATA
  6
CONTINUOUS
 62
     7
 10
187.53774070734801
 20
102.5
 30
0.0
 11
192.4377407073483
 21
102.5
 31
0.0
  0
LINE
  5
1EE
  8
DATA
  6
CONTINUOUS
 62
     7
 10
-11.6056057074239
 20
102.5
 30
0.0
 11
-11.6056057074239
 21
97.5
 31
0.0
  0
LINE
  5
1EF
  8
DATA
  6
CONTINUOUS
 62
     7
 10
4.0045330993628161
 20
102.5
 30
0.0
 11
4.0045330993628161
 21
97.5
 31
0.0
  0
LINE
  5
1F0
  8
DATA
  6
CONTINUOUS
 62
     7
 10
-18.64798551210853
 20
102.5
 30
0.0
 11
-18.64798551210853
 21
97.5
 31
0.0
  0
LINE
  5
1F1
  8
DATA
  6
CONTINUOUS
 62
     7
 10
-13.97144833167274
 20
102.5
 30
0.0
 11
-13.97144833167274
 21
97.5
 31
0.0
  0
LINE
  5
1F2
  8
DATA
  6
CONTINUOUS
 62
     7
 10
6.3520144878914646
 20
102.5
 30
0.0
 11
6.3520144878914646
 21
97.5
 31
0.0
  0
LINE
  5
1F3
  8
DATA
  6
CONTINUOUS
 62
     7
 10
11.02855166832742
 20
102.5
 30
0.0
 11
11.02855166832742
 21
97.5
 31
0.0
  0
LINE
  5
1F4
  8
DATA
  6
CONTINUOUS
 62
     7
 10
-18.64798551210853
 20
102.5
 30
0.0
 11
-13.97144833167274
 21
102.5
 31
0.0
  0
LINE
  5
1F5
  8
DATA
  6
CONTINUOUS
 62
     7
 10
-11.6056057074239
 20
102.5
 30
0.0
 11
4.0045330993628161
 21
102.5
 31
0.0
  0
LINE
  5
1F6
  8
DATA
  6
CONTINUOUS
 62
     7
 10
6.3520144878914646
 20
102.5
 30
0.0
 11
11.02855166832742
 21
102.5
 31
0.0
  0
LINE
  5
1F7
  8
DATA
  6
CONTINUOUS
 62
     7
 10
320.84084331000258
 20
-116.5
 30
0.0
 11
322.3408433100027
 21
-112.5
 31
0.0
  0
LINE
  5
1F8
  8
DATA
  6
CONTINUOUS
 62
     7
 10
304.84084331000258
 20
-116.5
 30
0.0
 11
303.3408433100027
 21
-112.5
 31
0.0
  0
LINE
  5
1F9
  8
DATA
  6
CONTINUOUS
 62
     7
 10
320.84084331000258
 20
-116.5
 30
0.0
 11
304.84084331000258
 21
-116.5
 31
0.0
  0
LINE
  5
1FA
  8
DATA
  6
CONTINUOUS
 62
     7
 10
389.15915668999742
 20
-116.5
 30
0.0
 11
387.65915668999742
 21
-112.5
 31
0.0
  0
LINE
  5
1FB
  8
DATA
  6
CONTINUOUS
 62
     7
 10
405.15915668999742
 20
-116.5
 30
0.0
 11
406.6591566899973
 21
-112.5
 31
0.0
  0
LINE
  5
1FC
  8
DATA
  6
CONTINUOUS
 62
     7
 10
389.15915668999742
 20
-116.5
 30
0.0
 11
405.15915668999742
 21
-116.5
 31
0.0
  0
ARC
  5
1FD
  8
DATA
  6
CONTINUOUS
 62
     7
 10
301.60000000000002
 20
-70.100000000000023
 30
0.0
 40
1.6000000000000221
 50
90.0
 51
179.99999999999901
  0
ARC
  5
1FE
  8
DATA
  6
CONTINUOUS
 62
     7
 10
408.39999999999992
 20
-70.099999999999994
 30
0.0
 40
1.6000000000000221
 50
0.0
 51
90.0
  0
ARC
  5
1FF
  8
DATA
  6
CONTINUOUS
 62
     7
 10
301.60000000000002
 20
-110.90000000000001
 30
0.0
 40
1.6000000000000221
 50
180.0
 51
269.99999999999898
  0
ARC
  5
200
  8
DATA
  6
CONTINUOUS
 62
     7
 10
408.39999999999992
 20
-110.89999999999991
 30
0.0
 40
1.6000000000000221
 50
270.0
 51
359.99999999999892
  0
LINE
  5
201
  8
DATA
  6
CONTINUOUS
 62
     7
 10
415.0
 20
-83.1762518745346
 30
0.0
 11
410.0
 21
-83.1762518745346
 31
0.0
  0
LINE
  5
202
  8
DATA
  6
CONTINUOUS
 62
     7
 10
415.0
 20
-88.834284512592944
 30
0.0
 11
410.0
 21
-88.834284512592944
 31
0.0
  0
LINE
  5
203
  8
DATA
  6
CONTINUOUS
 62
     7
 10
415.0
 20
-84.590760034049183
 30
0.0
 11
410.0
 21
-84.590760034049183
 31
0.0
  0
LINE
  5
204
  8
DATA
  6
CONTINUOUS
 62
     7
 10
415.0
 20
-87.419776353078376
 30
0.0
 11
410.0
 21
-87.419776353078376
 31
0.0
  0
LINE
  5
205
  8
DATA
  6
CONTINUOUS
 62
     7
 10
415.0
 20
-75.226076910705629
 30
0.0
 11
410.0
 21
-75.226076910705629
 31
0.0
  0
LINE
  5
206
  8
DATA
  6
CONTINUOUS
 62
     7
 10
415.0
 20
-76.576076910705581
 30
0.0
 11
410.0
 21
-76.576076910705581
 31
0.0
  0
LINE
  5
207
  8
DATA
  6
CONTINUOUS
 62
     7
 10
415.0
 20
-79.276076910705257
 30
0.0
 11
410.0
 21
-79.276076910705257
 31
0.0
  0
LINE
  5
208
  8
DATA
  6
CONTINUOUS
 62
     7
 10
415.0
 20
-80.626076910705251
 30
0.0
 11
410.0
 21
-80.626076910705251
 31
0.0
  0
LINE
  5
209
  8
DATA
  6
CONTINUOUS
 62
     7
 10
415.0
 20
-81.926076910705248
 30
0.0
 11
410.0
 21
-81.926076910705248
 31
0.0
  0
LINE
  5
20A
  8
DATA
  6
CONTINUOUS
 62
     7
 10
415.0
 20
-73.926076910705618
 30
0.0
 11
410.0
 21
-73.926076910705618
 31
0.0
  0
LINE
  5
20B
  8
DATA
  6
CONTINUOUS
 62
     7
 10
415.0
 20
-81.926076910705248
 30
0.0
 11
415.0
 21
-73.926076910705618
 31
0.0
  0
LINE
  5
20C
  8
DATA
  6
CONTINUOUS
 62
     7
 10
415.0
 20
-88.834284512592944
 30
0.0
 11
415.0
 21
-83.1762518745346
 31
0.0
  0
CIRCLE
  5
20D
  8
DATA
  6
CONTINUOUS
 62
     7
 10
314.0
 20
-75.5
 30
0.0
 40
2.399999999999975
  0
LINE
  5
20E
  8
DATA
  6
CONTINUOUS
 62
     7
 10
314.81317279836429
 20
-76.313172798364533
 30
0.0
 11
313.1868272016348
 21
-74.686827201634841
 31
0.0
  0
LINE
  5
20F
  8
DATA
  6
CONTINUOUS
 62
     7
 10
314.81317279836429
 20
-74.686827201635481
 30
0.0
 11
313.18879718935318
 21
-76.311202810646733
 31
0.0
  0
CIRCLE
  5
210
  8
DATA
  6
CONTINUOUS
 62
     7
 10
314.0
 20
-105.5
 30
0.0
 40
2.399999999999975
  0
LINE
  5
211
  8
DATA
  6
CONTINUOUS
 62
     7
 10
314.81317279836429
 20
-106.3131727983645
 30
0.0
 11
313.1868272016348
 21
-104.6868272016348
 31
0.0
  0
LINE
  5
212
  8
DATA
  6
CONTINUOUS
 62
     7
 10
314.81317279836429
 20
-104.6868272016355
 30
0.0
 11
313.18879718935318
 21
-106.31120281064671
 31
0.0
  0
CIRCLE
  5
213
  8
DATA
  6
CONTINUOUS
 62
     7
 10
389.0
 20
-105.5
 30
0.0
 40
2.399999999999975
  0
LINE
  5
214
  8
DATA
  6
CONTINUOUS
 62
     7
 10
389.81317279836452
 20
-106.3131727983645
 30
0.0
 11
388.18682720163491
 21
-104.6868272016348
 31
0.0
  0
LINE
  5
215
  8
DATA
  6
CONTINUOUS
 62
     7
 10
389.81317279836452
 20
-104.6868272016355
 30
0.0
 11
388.18879718935329
 21
-106.31120281064671
 31
0.0
  0
ARC
  5
216
  8
DATA
  6
CONTINUOUS
 62
     7
 10
300.51428507638877
 20
-97.0
 30
0.0
 40
1.50000000000001
 50
110.0510166284614
 51
249.94898337153859
  0
LINE
  5
217
  8
DATA
  6
CONTINUOUS
 62
     7
 10
299.69999999999999
 20
-101.4622449532565
 30
0.0
 11
299.69999999999999
 21
-98.259737994334358
 31
0.0
  0
LINE
  5
218
  8
DATA
  6
CONTINUOUS
 62
     7
 10
299.69999999999999
 20
-95.740262005665642
 30
0.0
 11
299.69999999999999
 21
-95.462244953256587
 31
0.0
  0
LINE
  5
219
  8
DATA
  6
CONTINUOUS
 62
     7
 10
299.69999999999999
 20
-95.462244953256587
 30
0.0
 11
300.0
 21
-95.462244953256587
 31
0.0
  0
LINE
  5
21A
  8
DATA
  6
CONTINUOUS
 62
     7
 10
299.69999999999999
 20
-101.4622449532565
 30
0.0
 11
300.0
 21
-101.4622449532565
 31
0.0
  0
TEXT
  5
21B
  8
DATA
 62
     7
 10
287.5765395101559
 20
-307.3693063074578
 30
0.0
 40
6.5153645833333318
  1
8\U+00D71HDMI切替機
 41
0.7
 11
287.5765395101559
 21
-300.85394172412452
 31
0.0
 73
     3
  0
ENDSEC
  0
EOF
