  0
SECTION
  2
HEADER
  9
$ACADVER
  1
AC1009
  9
$INSBASE
 10
0.0
 20
0.0
 30
0.0
  9
$EXTMIN
 10
-170.0164782349211
 20
-265.74833863455001
 30
-0.0015258207003583
  9
$EXTMAX
 10
370.0164807494923
 20
537.09174839639525
 30
0.0000000349246037
  9
$LIMMIN
 10
0.0
 20
0.0
  9
$LIMMAX
 10
0.0
 20
0.0
  9
$ORTHOMODE
 70
     0
  9
$REGENMODE
 70
     1
  9
$FILLMODE
 70
     1
  9
$QTEXTMODE
 70
     0
  9
$MIRRTEXT
 70
     1
  9
$DRAGMODE
 70
     2
  9
$LTSCALE
 40
15.24
  9
$OSMODE
 70
   231
  9
$ATTMODE
 70
     1
  9
$TEXTSIZE
 40
0.0
  9
$TRACEWID
 40
1.0
  9
$TEXTSTYLE
  7
STANDARD
  9
$CLAYER
  8
DATA
  9
$CELTYPE
  6
BYLAYER
  9
$CECOLOR
 62
   256
  9
$DIMSCALE
 40
1.0
  9
$DIMASZ
 40
0.18
  9
$DIMEXO
 40
0.0625
  9
$DIMDLI
 40
0.38
  9
$DIMRND
 40
0.0
  9
$DIMDLE
 40
0.0
  9
$DIMEXE
 40
0.18
  9
$DIMTP
 40
0.0
  9
$DIMTM
 40
0.0
  9
$DIMTXT
 40
0.18
  9
$DIMCEN
 40
0.09
  9
$DIMTSZ
 40
0.0
  9
$DIMTOL
 70
     0
  9
$DIMLIM
 70
     0
  9
$DIMTIH
 70
     1
  9
$DIMTOH
 70
     1
  9
$DIMSE1
 70
     0
  9
$DIMSE2
 70
     0
  9
$DIMTAD
 70
     0
  9
$DIMZIN
 70
     0
  9
$DIMBLK
  1

  9
$DIMASO
 70
     1
  9
$DIMSHO
 70
     1
  9
$DIMPOST
  1

  9
$DIMAPOST
  1

  9
$DIMALT
 70
     0
  9
$DIMALTD
 70
     2
  9
$DIMALTF
 40
25.399999999999999
  9
$DIMLFAC
 40
1.0
  9
$DIMTOFL
 70
     0
  9
$DIMTVP
 40
0.0
  9
$DIMTIX
 70
     0
  9
$DIMSOXD
 70
     0
  9
$DIMSAH
 70
     0
  9
$DIMBLK1
  1

  9
$DIMBLK2
  1

  9
$DIMSTYLE
  2
STANDARD
  9
$DIMCLRD
 70
     0
  9
$DIMCLRE
 70
     0
  9
$DIMCLRT
 70
     0
  9
$DIMTFAC
 40
1.0
  9
$DIMGAP
 40
0.09
  9
$LUNITS
 70
     2
  9
$LUPREC
 70
     4
  9
$SKETCHINC
 40
0.1
  9
$FILLETRAD
 40
0.0
  9
$AUNITS
 70
     0
  9
$AUPREC
 70
     0
  9
$MENU
  1
acad
  9
$ELEVATION
 40
0.0
  9
$PELEVATION
 40
0.0
  9
$THICKNESS
 40
0.0
  9
$LIMCHECK
 70
     0
  9
$BLIPMODE
 70
     0
  9
$CHAMFERA
 40
0.0
  9
$CHAMFERB
 40
0.0
  9
$SKPOLY
 70
     0
  9
$TDCREATE
 40
2455418.5744444439
  9
$TDUPDATE
 40
2455418.5792374192
  9
$TDINDWG
 40
0.0003164815
  9
$TDUSRTIMER
 40
0.0003164815
  9
$USRTIMER
 70
     1
  9
$ANGBASE
 50
0.0
  9
$ANGDIR
 70
     0
  9
$PDMODE
 70
     1
  9
$PDSIZE
 40
-2.0
  9
$PLINEWID
 40
0.0
  9
$COORDS
 70
     0
  9
$SPLFRAME
 70
     0
  9
$SPLINETYPE
 70
     6
  9
$SPLINESEGS
 70
     8
  9
$ATTDIA
 70
     0
  9
$ATTREQ
 70
     1
  9
$HANDLING
 70
     1
  9
$HANDSEED
  5
3E7
  9
$SURFTAB1
 70
     6
  9
$SURFTAB2
 70
     6
  9
$SURFTYPE
 70
     6
  9
$SURFU
 70
     6
  9
$SURFV
 70
     6
  9
$UCSNAME
  2

  9
$UCSORG
 10
0.0
 20
0.0
 30
0.0
  9
$UCSXDIR
 10
1.0
 20
0.0
 30
0.0
  9
$UCSYDIR
 10
0.0
 20
1.0
 30
0.0
  9
$PUCSNAME
  2

  9
$PUCSORG
 10
0.0
 20
0.0
 30
0.0
  9
$PUCSXDIR
 10
1.0
 20
0.0
 30
0.0
  9
$PUCSYDIR
 10
0.0
 20
1.0
 30
0.0
  9
$USERI1
 70
     0
  9
$USERI2
 70
     0
  9
$USERI3
 70
     0
  9
$USERI4
 70
     0
  9
$USERI5
 70
     0
  9
$USERR1
 40
0.0
  9
$USERR2
 40
0.0
  9
$USERR3
 40
0.0
  9
$USERR4
 40
0.0
  9
$USERR5
 40
0.0
  9
$WORLDVIEW
 70
     1
  9
$SHADEDGE
 70
     3
  9
$SHADEDIF
 70
    70
  9
$TILEMODE
 70
     1
  9
$MAXACTVP
 70
    64
  9
$PLIMCHECK
 70
     0
  9
$PEXTMIN
 10
1.0000000000000000E+020
 20
1.0000000000000000E+020
 30
1.0000000000000000E+020
  9
$PEXTMAX
 10
-1.0000000000000000E+020
 20
-1.0000000000000000E+020
 30
-1.0000000000000000E+020
  9
$PLIMMIN
 10
0.0
 20
0.0
  9
$PLIMMAX
 10
12.0
 20
9.0
  9
$UNITMODE
 70
     0
  9
$VISRETAIN
 70
     0
  9
$PLINEGEN
 70
     1
  9
$PSLTSCALE
 70
     0
  0
ENDSEC
  0
SECTION
  2
TABLES
  0
TABLE
  2
VPORT
 70
     1
  0
VPORT
  2
*ACTIVE
 70
     0
 10
0.0
 20
0.0
 11
1.0
 21
1.0
 12
100.0000012572856
 22
135.6717048809227
 13
0.0
 23
0.0
 14
1.0
 24
1.0
 15
0.0
 25
0.0
 16
0.0
 26
0.0
 36
1.0
 17
0.0
 27
0.0
 37
0.0
 40
808.75056619927125
 41
1.9619164619164611
 42
50.0
 43
0.0
 44
0.0
 50
0.0
 51
0.0
 71
     0
 72
  2000
 73
     1
 74
     1
 75
     0
 76
     0
 77
     0
 78
     0
  0
ENDTAB
  0
TABLE
  2
LTYPE
 70
    11
  0
LTYPE
  2
CONTINUOUS
 70
     0
  3
Solid line
 72
    65
 73
     0
 40
0.0
  0
ENDTAB
  0
TABLE
  2
LAYER
 70
     5
  0
LAYER
  2
0
 70
     0
 62
     7
  6
CONTINUOUS
  0
LAYER
  2
DATA
 70
     0
 62
     7
  6
CONTINUOUS
  0
LAYER
  2
HIBINO-BASE
 70
     0
 62
     7
  6
CONTINUOUS
  0
LAYER
  2
SPEC
 70
     0
 62
     7
  6
CONTINUOUS
  0
LAYER
  2
DIMNSIONS
 70
     0
 62
     7
  6
CONTINUOUS
  0
ENDTAB
  0
TABLE
  2
STYLE
 70
     3
  0
STYLE
  2
STANDARD
 70
     0
 40
0.0
 41
1.0
 50
0.0
 71
     0
 42
0.0
  3
txt
  4
BIGFONT.SHX
  0
ENDTAB
  0
TABLE
  2
VIEW
 70
     0
  0
ENDTAB
  0
TABLE
  2
UCS
 70
     0
  0
ENDTAB
  0
TABLE
  2
APPID
 70
     3
  0
APPID
  2
ACAD
 70
     0
  0
APPID
  2
ACADANNOTATIVE
 70
     0
  0
APPID
  2
ACAD_MLEADERVER
 70
     0
  0
ENDTAB
  0
TABLE
  2
DIMSTYLE
 70
     2
  0
DIMSTYLE
  2
STANDARD
 70
     0
  3

  4

  5

  6

  7

 40
1.0
 41
0.18
 42
0.0625
 43
0.38
 44
0.18
 45
0.0
 46
0.0
 47
0.0
 48
0.0
140
0.18
141
0.09
142
0.0
143
25.399999999999999
144
1.0
145
0.0
146
1.0
147
0.09
 71
     0
 72
     0
 73
     1
 74
     1
 75
     0
 76
     0
 77
     0
 78
     0
170
     0
171
     2
172
     0
173
     0
174
     0
175
     0
176
     0
177
     0
178
     0
  0
ENDTAB
  0
ENDSEC
  0
SECTION
  2
BLOCKS
  0
BLOCK
  8
0
  2
$MODEL_SPACE
 70
     0
 10
0.0
 20
0.0
 30
0.0
  3
$MODEL_SPACE
  1

  0
ENDBLK
  5
328
  8
0
  0
BLOCK
 67
     1
  8
0
  2
$PAPER_SPACE
 70
     0
 10
0.0
 20
0.0
 30
0.0
  3
$PAPER_SPACE
  1

  0
ENDBLK
  5
324
 67
     1
  8
0
  0
ENDSEC
  0
SECTION
  2
ENTITIES
  0
LINE
  5
2C
  8
HIBINO-BASE
  6
CONTINUOUS
 62
     7
 10
-169.99999999999989
 20
537.06729578973182
 30
0.0
 11
370.0
 21
537.06729578973182
 31
0.0
  0
LINE
  5
2D
  8
HIBINO-BASE
  6
CONTINUOUS
 62
     7
 10
370.0
 20
-242.93270421026821
 30
0.0
 11
-169.99999999999989
 21
-242.93270421026821
 31
0.0
  0
LINE
  5
2E
  8
HIBINO-BASE
  6
CONTINUOUS
 62
     7
 10
-169.99999999999989
 20
-242.93270421026821
 30
0.0
 11
-169.99999999999989
 21
537.06729578973182
 31
0.0
  0
LINE
  5
2F
  8
HIBINO-BASE
  6
CONTINUOUS
 62
     7
 10
370.0
 20
537.06729578973182
 30
0.0
 11
370.0
 21
-242.93270421026821
 31
0.0
  0
LINE
  5
30
  8
HIBINO-BASE
  6
CONTINUOUS
 62
     7
 10
100.0
 20
-175.4327042102681
 30
0.0
 11
370.0
 21
-175.4327042102681
 31
0.0
  0
LINE
  5
31
  8
HIBINO-BASE
  6
CONTINUOUS
 62
     7
 10
100.0
 20
-242.93270421026821
 30
0.0
 11
100.0
 21
-175.4327042102681
 31
0.0
  0
TEXT
  5
32
  8
HIBINO-BASE
 62
     7
 10
102.7
 20
-182.95878421026811
 30
0.0
 40
4.8865234374999993
  1
NOTE
 41
0.7
 11
102.7
 21
-178.0722607727682
 31
0.0
 73
     3
  0
LINE
  5
33
  8
HIBINO-BASE
  6
CONTINUOUS
 62
     7
 10
205.0
 20
-242.93270421026821
 30
0.0
 11
205.0
 21
-175.4327042102681
 31
0.0
  0
TEXT
  5
34
  8
HIBINO-BASE
 62
     7
 10
207.69999999999999
 20
-182.95878421026811
 30
0.0
 40
4.8865234374999993
  1
TITLE
 41
0.7
 11
207.69999999999999
 21
-178.0722607727682
 31
0.0
 73
     3
  0
LINE
  5
35
  8
HIBINO-BASE
  6
CONTINUOUS
 62
     7
 10
100.0
 20
-212.9327042102681
 30
0.0
 11
370.0
 21
-212.9327042102681
 31
0.0
  0
TEXT
  5
36
  8
HIBINO-BASE
 62
     7
 10
245.19999999999999
 20
-220.28982421026819
 30
0.0
 40
4.8865234374999993
  1
DRAWN
 41
0.7
 11
245.19999999999999
 21
-215.4033007727682
 31
0.0
 73
     3
  0
TEXT
  5
37
  8
HIBINO-BASE
 62
     7
 10
170.19999999999999
 20
-220.28982421026819
 30
0.0
 40
4.8865234374999993
  1
DATE
 41
0.7
 11
170.19999999999999
 21
-215.4033007727682
 31
0.0
 73
     3
  0
TEXT
  5
38
  8
HIBINO-BASE
 62
     7
 10
140.19999999999999
 20
-220.28982421026819
 30
0.0
 40
4.8865234374999993
  1
SCALE
 41
0.7
 11
140.19999999999999
 21
-215.4033007727682
 31
0.0
 73
     3
  0
TEXT
  5
39
  8
HIBINO-BASE
 62
     7
 10
207.69999999999999
 20
-220.28982421026819
 30
0.0
 40
4.8865234374999993
  1
DESIGN
 41
0.7
 11
207.69999999999999
 21
-215.4033007727682
 31
0.0
 73
     3
  0
TEXT
  5
3A
  8
HIBINO-BASE
 62
     7
 10
320.19999999999999
 20
-220.28982421026819
 30
0.0
 40
4.8865234374999993
  1
DRAWING NO.
 41
0.7
 11
320.19999999999999
 21
-215.4033007727682
 31
0.0
 73
     3
  0
TEXT
  5
3B
  8
HIBINO-BASE
 62
     7
 10
282.69999999999999
 20
-220.28982421026819
 30
0.0
 40
4.8865234374999993
  1
CHECK
 41
0.7
 11
282.69999999999999
 21
-215.4033007727682
 31
0.0
 73
     3
  0
LINE
  5
3C
  8
HIBINO-BASE
  6
CONTINUOUS
 62
     7
 10
143.12499999999989
 20
-239.18270421026821
 30
0.0
 11
154.375
 21
-227.9327042102681
 31
0.0
  0
TEXT
  5
3D
  8
HIBINO-BASE
 62
     7
 10
141.24999999999989
 20
-231.25953421026821
 30
0.0
 40
4.8865234374999993
  1
1
 41
0.7
 11
141.24999999999989
 21
-226.3730107727682
 31
0.0
 73
     3
  0
LINE
  5
3E
  8
HIBINO-BASE
  6
CONTINUOUS
 62
     7
 10
137.5
 20
-242.93270421026821
 30
0.0
 11
137.5
 21
-212.9327042102681
 31
0.0
  0
LINE
  5
3F
  8
HIBINO-BASE
  6
CONTINUOUS
 62
     7
 10
167.5
 20
-242.93270421026821
 30
0.0
 11
167.5
 21
-212.9327042102681
 31
0.0
  0
LINE
  5
40
  8
HIBINO-BASE
  6
CONTINUOUS
 62
     7
 10
242.5
 20
-212.9327042102681
 30
0.0
 11
242.5
 21
-242.93270421026821
 31
0.0
  0
LINE
  5
41
  8
HIBINO-BASE
  6
CONTINUOUS
 62
     7
 10
317.5
 20
-212.9327042102681
 30
0.0
 11
317.5
 21
-242.93270421026821
 31
0.0
  0
LINE
  5
42
  8
HIBINO-BASE
  6
CONTINUOUS
 62
     7
 10
279.99999999999989
 20
-242.93270421026821
 30
0.0
 11
279.99999999999989
 21
-212.9327042102681
 31
0.0
  0
TEXT
  5
43
  8
HIBINO-BASE
 62
     7
 10
170.06961999999999
 20
-234.3417642102682
 30
0.0
 40
4.8865234374999993
  1
'10.08.
 41
0.7
 11
170.06961999999999
 21
-229.45524077276821
 31
0.0
 73
     3
  0
TEXT
  5
44
  8
HIBINO-BASE
 62
     7
 10
152.5
 20
-236.88453421026821
 30
0.0
 40
4.8865234374999993
  1
3
 41
0.7
 11
152.5
 21
-231.9980107727682
 31
0.0
 73
     3
  0
TEXT
  5
45
  8
HIBINO-BASE
 62
     7
 10
111.65000000000001
 20
-237.0047042102681
 30
0.0
 40
9.7730468749999986
  1
A4
 41
0.7
 11
111.65000000000001
 21
-227.2316573352681
 31
0.0
 73
     3
  0
TEXT
  5
46
  8
HIBINO-BASE
 62
     7
 10
102.875
 20
-220.79106921026809
 30
0.0
 40
4.8865234374999993
  1
PAPER SIZE
 41
0.7
 11
102.875
 21
-215.9045457727681
 31
0.0
 73
     3
  0
TEXT
  5
47
  8
HIBINO-BASE
 62
     7
 10
-161.7210942293294
 20
-262.20842491279689
 30
0.0
 40
10.58746744791666
  1
Hibino-Intersound Corporation
 41
0.7
 11
-161.7210942293294
 21
-251.62095746488029
 31
0.0
 73
     3
  0
TEXT
  5
48
  8
HIBINO-BASE
 62
     7
 10
160.54182904064169
 20
-261.15516015292872
 30
0.0
 40
10.58746744791666
  1
ヒビノインターサウンド株式会社
 41
0.7
 11
160.54182904064169
 21
-250.56769270501201
 31
0.0
 73
     3
  0
LINE
  5
49
  8
SPEC
  6
CONTINUOUS
 62
     7
 10
-147.49999999999989
 20
507.0672957897317
 30
0.0
 11
295.0
 21
507.0672957897317
 31
0.0
  0
LINE
  5
4A
  8
SPEC
  6
CONTINUOUS
 62
     7
 10
-147.49999999999989
 20
495.8172957897317
 30
0.0
 11
295.0
 21
495.8172957897317
 31
0.0
  0
LINE
  5
4B
  8
SPEC
  6
CONTINUOUS
 62
     7
 10
-147.49999999999989
 20
473.3172957897317
 30
0.0
 11
295.0
 21
473.3172957897317
 31
0.0
  0
LINE
  5
4C
  8
SPEC
  6
CONTINUOUS
 62
     7
 10
-147.49999999999989
 20
484.5672957897317
 30
0.0
 11
295.0
 21
484.5672957897317
 31
0.0
  0
LINE
  5
4D
  8
SPEC
  6
CONTINUOUS
 62
     7
 10
-147.49999999999989
 20
507.0672957897317
 30
0.0
 11
-147.49999999999989
 21
304.56729578973182
 31
0.0
  0
TEXT
  5
4E
  8
SPEC
 62
     7
 10
-143.74999999999989
 20
511.24710578973179
 30
0.0
 40
7.3297851562499989
  1
仕様
 41
0.7
 11
-143.74999999999989
 21
518.57689094598175
 31
0.0
 73
     3
  0
LINE
  5
4F
  8
SPEC
  6
CONTINUOUS
 62
     7
 10
295.0
 20
507.0672957897317
 30
0.0
 11
295.0
 21
304.56729578973182
 31
0.0
  0
LINE
  5
50
  8
SPEC
  6
CONTINUOUS
 62
     7
 10
-147.49999999999989
 20
462.0672957897317
 30
0.0
 11
295.0
 21
462.0672957897317
 31
0.0
  0
LINE
  5
51
  8
SPEC
  6
CONTINUOUS
 62
     7
 10
-147.49999999999989
 20
450.8172957897317
 30
0.0
 11
295.0
 21
450.8172957897317
 31
0.0
  0
LINE
  5
52
  8
SPEC
  6
CONTINUOUS
 62
     7
 10
-147.49999999999989
 20
439.5672957897317
 30
0.0
 11
295.0
 21
439.5672957897317
 31
0.0
  0
LINE
  5
53
  8
SPEC
  6
CONTINUOUS
 62
     7
 10
-147.49999999999989
 20
428.3172957897317
 30
0.0
 11
295.0
 21
428.3172957897317
 31
0.0
  0
LINE
  5
54
  8
SPEC
  6
CONTINUOUS
 62
     7
 10
-147.49999999999989
 20
417.0672957897317
 30
0.0
 11
295.0
 21
417.0672957897317
 31
0.0
  0
LINE
  5
55
  8
SPEC
  6
CONTINUOUS
 62
     7
 10
-147.49999999999989
 20
405.8172957897317
 30
0.0
 11
295.0
 21
405.8172957897317
 31
0.0
  0
LINE
  5
56
  8
SPEC
  6
CONTINUOUS
 62
     7
 10
-147.49999999999989
 20
394.5672957897317
 30
0.0
 11
295.0
 21
394.5672957897317
 31
0.0
  0
LINE
  5
57
  8
SPEC
  6
CONTINUOUS
 62
     7
 10
-147.49999999999989
 20
383.31729578973182
 30
0.0
 11
295.0
 21
383.31729578973182
 31
0.0
  0
LINE
  5
58
  8
SPEC
  6
CONTINUOUS
 62
     7
 10
-147.49999999999989
 20
372.0672957897317
 30
0.0
 11
295.0
 21
372.0672957897317
 31
0.0
  0
LINE
  5
59
  8
SPEC
  6
CONTINUOUS
 62
     7
 10
-147.49999999999989
 20
360.81729578973182
 30
0.0
 11
295.0
 21
360.81729578973182
 31
0.0
  0
TEXT
  5
5A
  8
SPEC
 62
     7
 10
-145.0854837004039
 20
363.91215001279051
 30
0.0
 40
5.7009440104166673
  1
寸法
 41
0.7
 11
-145.0854837004039
 21
369.61309402320711
 31
0.0
 73
     3
  0
TEXT
  5
5B
  8
SPEC
 62
     7
 10
2.634366765571158
 20
363.5703348793964
 30
0.0
 40
5.7009440104166673
  1
76(W)\U+00D7263(H)\U+00D725(D)mm(突起部含まず）
 41
0.7
 11
2.634366765571158
 21
369.27127888981312
 31
0.0
 73
     3
  0
TEXT
  5
5C
  8
SPEC
 62
     7
 10
2.6584082784349601
 20
352.54458401435789
 30
0.0
 40
5.7009440104166673
  1
約300g
 41
0.7
 11
2.658408278434961
 21
358.2455280247745
 31
0.0
 73
     3
  0
TEXT
  5
5D
  8
SPEC
 62
     7
 10
-144.9812424522836
 20
352.65820779616058
 30
0.0
 40
5.7009440104166673
  1
重量
 41
0.7
 11
-144.9812424522836
 21
358.3591518065773
 31
0.0
 73
     3
  0
TEXT
  5
5E
  8
SPEC
 62
     7
 10
-145.0345291462491
 20
386.06082519607941
 30
0.0
 40
5.7009440104166673
  1
電源
 41
0.7
 11
-145.0345291462491
 21
391.76176920649613
 31
0.0
 73
     3
  0
TEXT
  5
5F
  8
SPEC
 62
     7
 10
2.8089851823607419
 20
385.85805422493701
 30
0.0
 40
5.7009440104166673
  1
5V DC
 41
0.7
 11
2.8089851823607428
 21
391.55899823535361
 31
0.0
 73
     3
  0
TEXT
  5
60
  8
SPEC
 62
     7
 10
-144.97441740628349
 20
374.94913751099739
 30
0.0
 40
5.7009440104166673
  1
消費電力
 41
0.7
 11
-144.97441740628349
 21
380.65008152141399
 31
0.0
 73
     3
  0
TEXT
  5
61
  8
SPEC
 62
     7
 10
4.3312499999999972
 20
374.98612325816811
 30
0.0
 40
5.7009440104166673
  1
20W(最大)
 41
0.7
 11
4.3312499999999972
 21
380.68706726858483
 31
0.0
 73
     3
  0
TEXT
  5
62
  8
SPEC
 62
     7
 10
-144.82839051479019
 20
408.78502648940162
 30
0.0
 40
5.7009440104166673
  1
RS232端子
 41
0.7
 11
-144.82839051479019
 21
414.48597049981828
 31
0.0
 73
     3
  0
TEXT
  5
63
  8
SPEC
 62
     7
 10
2.7120442195559908
 20
408.73612325816811
 30
0.0
 40
5.7009440104166673
  1
DB9 Serial(F)　
 41
0.7
 11
2.7120442195559922
 21
414.43706726858471
 31
0.0
 73
     3
  0
TEXT
  5
64
  8
SPEC
 62
     7
 10
-144.88324095325081
 20
420.07907457904213
 30
0.0
 40
5.7009440104166673
  1
LEDインジケータ ー(power)
 41
0.7
 11
-144.88324095325081
 21
425.78001858945879
 31
0.0
 73
     3
  0
TEXT
  5
65
  8
SPEC
 62
     7
 10
2.3300657370419189
 20
419.90123915094262
 30
0.0
 40
5.7009440104166673
  1
1(red)
 41
0.7
 11
2.3300657370419202
 21
425.60218316135922
 31
0.0
 73
     3
  0
TEXT
  5
66
  8
SPEC
 62
     7
 10
-144.77047455355381
 20
431.03171861618989
 30
0.0
 40
5.7009440104166673
  1
LEDインジケータ ー(source mapping)
 41
0.7
 11
-144.77047455355381
 21
436.7326626266065
 31
0.0
 73
     3
  0
TEXT
  5
67
  8
SPEC
 62
     7
 10
2.7679315457843492
 20
430.9517170797568
 30
0.0
 40
5.7009440104166673
  1
4(blue)
 41
0.7
 11
2.7679315457843501
 21
436.65266109017341
 31
0.0
 73
     3
  0
TEXT
  5
68
  8
SPEC
 62
     7
 10
-144.85716955916101
 20
442.5314234149713
 30
0.0
 40
5.7009440104166673
  1
HDMI入出力端子
 41
0.7
 11
-144.85716955916101
 21
448.23236742538791
 31
0.0
 73
     3
  0
TEXT
  5
69
  8
SPEC
 62
     7
 10
2.7914433753796422
 20
442.65757914997312
 30
0.0
 40
5.7009440104166673
  1
type A 19pin female；(4)input、(1)output
 41
0.7
 11
2.791443375379643
 21
448.35852316038972
 31
0.0
 73
     3
  0
TEXT
  5
6A
  8
SPEC
 62
     7
 10
-144.97387523422529
 20
453.73288822264237
 30
0.0
 40
5.7009440104166673
  1
入力Video信号
 41
0.7
 11
-144.97387523422529
 21
459.43383223305921
 31
0.0
 73
     3
  0
TEXT
  5
6B
  8
SPEC
 62
     7
 10
2.2881262664978399
 20
453.77924239334089
 30
0.0
 40
5.7009440104166673
  1
1.2Vp-p
 41
0.7
 11
2.2881262664978399
 21
459.48018640375761
 31
0.0
 73
     3
  0
TEXT
  5
6C
  8
SPEC
 62
     7
 10
-145.0283905147902
 20
464.98288822264237
 30
0.0
 40
5.7009440104166673
  1
入力DDC信号
 41
0.7
 11
-145.0283905147902
 21
470.68383223305909
 31
0.0
 73
     3
  0
TEXT
  5
6D
  8
SPEC
 62
     7
 10
2.737472553765314
 20
464.85625299831179
 30
0.0
 40
5.7009440104166673
  1
5Vp-p(TTL)
 41
0.7
 11
2.737472553765314
 21
470.55719700872862
 31
0.0
 73
     3
  0
TEXT
  5
6E
  8
SPEC
 62
     7
 10
-144.82839051479019
 20
476.43976854498618
 30
0.0
 40
5.7009440104166673
  1
最大対応解像度
 41
0.7
 11
-144.82839051479019
 21
482.1407125554029
 31
0.0
 73
     3
  0
TEXT
  5
6F
  8
SPEC
 62
     7
 10
2.392868345694267
 20
476.3012384978897
 30
0.0
 40
5.7009440104166673
  1
1080p@60Hz、1920\U+00D71200@60Hz With 12-bit Deep Color 
 41
0.7
 11
2.392868345694267
 21
482.0021825083063
 31
0.0
 73
     3
  0
TEXT
  5
70
  8
SPEC
 62
     7
 10
-146.12585151366471
 20
487.8282361056385
 30
0.0
 40
5.7009440104166673
  1
ピクセルクロック/スピード
 41
0.7
 11
-146.12585151366471
 21
493.5291801160551
 31
0.0
 73
     3
  0
TEXT
  5
71
  8
SPEC
 62
     7
 10
2.325403619571488
 20
487.29077753900282
 30
0.0
 40
5.7009440104166673
  1
165MHz
 41
0.7
 11
2.325403619571488
 21
492.99172154941942
 31
0.0
 73
     3
  0
TEXT
  5
72
  8
SPEC
 62
     7
 10
-145.13975850335331
 20
498.30729175694472
 30
0.0
 40
5.7009440104166673
  1
ビデオアンプ帯域
 41
0.7
 11
-145.13975850335331
 21
504.00823576736138
 31
0.0
 73
     3
  0
TEXT
  5
73
  8
SPEC
 62
     7
 10
2.7130761986084622
 20
498.3454318198377
 30
0.0
 40
5.7009440104166673
  1
225MHz
 41
0.7
 11
2.7130761986084622
 21
504.04637583025431
 31
0.0
 73
     3
  0
LINE
  5
74
  8
SPEC
  6
CONTINUOUS
 62
     7
 10
-0.0000000000000142
 20
304.56729578973182
 30
0.0
 11
-0.0000000000000142
 21
507.0672957897317
 31
0.0
  0
TEXT
  5
75
  8
SPEC
 62
     7
 10
-145.98940263164261
 20
397.31760754688207
 30
0.0
 40
5.7009440104166673
  1
IR Extender
 41
0.7
 11
-145.98940263164261
 21
403.01855155729879
 31
0.0
 73
     3
  0
TEXT
  5
76
  8
SPEC
 62
     7
 10
2.7178116131883159
 20
397.38469275330812
 30
0.0
 40
5.7009440104166673
  1
3.5mm Mini-Stereo　
 41
0.7
 11
2.7178116131883159
 21
403.08563676372461
 31
0.0
 73
     3
  0
LINE
  5
77
  8
SPEC
  6
CONTINUOUS
 62
     7
 10
-147.49999999999989
 20
349.56729578973182
 30
0.0
 11
295.0
 21
349.56729578973182
 31
0.0
  0
LINE
  5
78
  8
SPEC
  6
CONTINUOUS
 62
     7
 10
-147.49999999999989
 20
338.3172957897317
 30
0.0
 11
295.0
 21
338.3172957897317
 31
0.0
  0
LINE
  5
79
  8
SPEC
  6
CONTINUOUS
 62
     7
 10
-147.49999999999989
 20
327.06729578973182
 30
0.0
 11
295.0
 21
327.06729578973182
 31
0.0
  0
TEXT
  5
7A
  8
SPEC
 62
     7
 10
2.842434800992037
 20
340.88768464934031
 30
0.0
 40
5.7009440104166673
  1
0～40℃
 41
0.7
 11
2.842434800992037
 21
346.58862865975692
 31
0.0
 73
     3
  0
TEXT
  5
7B
  8
SPEC
 62
     7
 10
-144.9562132709967
 20
341.2092506710938
 30
0.0
 40
5.7009440104166673
  1
動作温度
 41
0.7
 11
-144.9562132709967
 21
346.9101946815104
 31
0.0
 73
     3
  0
TEXT
  5
7C
  8
SPEC
 62
     7
 10
2.3204968998960989
 20
329.9813492202577
 30
0.0
 40
5.7009440104166673
  1
アイボリー/ブラック
 41
0.7
 11
2.3204968998960989
 21
335.68229323067442
 31
0.0
 73
     3
  0
TEXT
  5
7D
  8
SPEC
 62
     7
 10
-144.88966543840451
 20
330.09234633627813
 30
0.0
 40
5.7009440104166673
  1
本体色
 41
0.7
 11
-144.88966543840451
 21
335.79329034669479
 31
0.0
 73
     3
  0
TEXT
  5
7E
  8
SPEC
 62
     7
 10
2.7147720773064341
 20
318.83352962123121
 30
0.0
 40
5.7009440104166673
  1
US/EU標準、HDMI1.3、HDMI1.2、HDCP1.1、DVI1.0
 41
0.7
 11
2.7147720773064341
 21
324.53447363164793
 31
0.0
 73
     3
  0
TEXT
  5
7F
  8
SPEC
 62
     7
 10
-144.82321131234539
 20
318.6206547875222
 30
0.0
 40
5.7009440104166673
  1
準拠
 41
0.7
 11
-144.82321131234539
 21
324.32159879793892
 31
0.0
 73
     3
  0
TEXT
  5
80
  8
SPEC
 62
     7
 10
2.8563368143101249
 20
307.73514152802721
 30
0.0
 40
5.7009440104166673
  1
UL(電源)、RoHS、CE
 41
0.7
 11
2.8563368143101249
 21
313.43608553844382
 31
0.0
 73
     3
  0
TEXT
  5
81
  8
SPEC
 62
     7
 10
-144.82550109093339
 20
307.6594197602509
 30
0.0
 40
5.7009440104166673
  1
保証
 41
0.7
 11
-144.82550109093339
 21
313.3603637706675
 31
0.0
 73
     3
  0
LINE
  5
82
  8
SPEC
  6
CONTINUOUS
 62
     7
 10
-147.49999999999989
 20
315.8172957897317
 30
0.0
 11
295.0
 21
315.8172957897317
 31
0.0
  0
LINE
  5
83
  8
SPEC
  6
CONTINUOUS
 62
     7
 10
-147.49999999999989
 20
304.56729578973182
 30
0.0
 11
295.0
 21
304.56729578973182
 31
0.0
  0
TEXT
  5
84
  8
DIMNSIONS
 62
     7
 10
40.0
 20
-206.12423421026821
 30
0.0
 40
7.3297851562499989
  1
(単位：mm)
 41
0.7
 11
40.0
 21
-198.79444905401809
 31
0.0
 73
     3
  0
LINE
  5
85
  8
DIMNSIONS
  6
CONTINUOUS
 62
     7
 10
-74.750000000000014
 20
-131.25
 30
0.0
 11
-93.499999999999986
 21
-131.25
 31
0.0
  0
LINE
  5
86
  8
DIMNSIONS
  6
CONTINUOUS
 62
     7
 10
-74.750000000000014
 20
-106.25
 30
0.0
 11
-93.499999999999986
 21
-106.25
 31
0.0
  0
LINE
  5
87
  8
DIMNSIONS
  6
CONTINUOUS
 62
     7
 10
-87.500000000000014
 20
-131.25
 30
0.0
 11
-87.500000000000014
 21
-106.25
 31
0.0
  0
LINE
  5
88
  8
DIMNSIONS
  6
CONTINUOUS
 62
     7
 10
-87.500000000000014
 20
-131.25
 30
0.0
 11
-89.51011938545075
 21
-123.7481323242187
 31
0.0
  0
LINE
  5
89
  8
DIMNSIONS
  6
CONTINUOUS
 62
     7
 10
-87.500000000000014
 20
-131.25
 30
0.0
 11
-85.489880614549264
 21
-123.7481323242187
 31
0.0
  0
LINE
  5
8A
  8
DIMNSIONS
  6
CONTINUOUS
 62
     7
 10
-87.500000000000014
 20
-106.25
 30
0.0
 11
-85.489880614549264
 21
-113.7518676757812
 31
0.0
  0
LINE
  5
8B
  8
DIMNSIONS
  6
CONTINUOUS
 62
     7
 10
-87.500000000000014
 20
-106.25
 30
0.0
 11
-89.51011938545075
 21
-113.7518676757812
 31
0.0
  0
TEXT
  5
8C
  8
DIMNSIONS
 62
     7
 10
-90.481666666666655
 20
-124.0416666666667
 30
0.0
 40
8.1442057291666661
  1
25
 50
90.0
 41
0.7
 11
-98.625872395833341
 21
-124.0416666666667
 31
0.0
 73
     3
  0
LINE
  5
8D
  8
DIMNSIONS
  6
CONTINUOUS
 62
     7
 10
-68.750000000000014
 20
-137.25
 30
0.0
 11
-68.750000000000014
 21
-156.0
 31
0.0
  0
LINE
  5
8E
  8
DIMNSIONS
  6
CONTINUOUS
 62
     7
 10
7.2499999999999867
 20
-137.25
 30
0.0
 11
7.2499999999999867
 21
-156.0
 31
0.0
  0
LINE
  5
8F
  8
DIMNSIONS
  6
CONTINUOUS
 62
     7
 10
-68.750000000000014
 20
-150.0
 30
0.0
 11
7.2499999999999867
 21
-150.0
 31
0.0
  0
LINE
  5
90
  8
DIMNSIONS
  6
CONTINUOUS
 62
     7
 10
-68.750000000000014
 20
-150.0
 30
0.0
 11
-61.248132324218759
 21
-147.98988061454921
 31
0.0
  0
LINE
  5
91
  8
DIMNSIONS
  6
CONTINUOUS
 62
     7
 10
-68.750000000000014
 20
-150.0
 30
0.0
 11
-61.248132324218759
 21
-152.01011938545071
 31
0.0
  0
LINE
  5
92
  8
DIMNSIONS
  6
CONTINUOUS
 62
     7
 10
7.2499999999999867
 20
-150.0
 30
0.0
 11
-0.2518676757812699
 21
-152.01011938545071
 31
0.0
  0
LINE
  5
93
  8
DIMNSIONS
  6
CONTINUOUS
 62
     7
 10
7.2499999999999867
 20
-150.0
 30
0.0
 11
-0.2518676757812699
 21
-147.98988061454921
 31
0.0
  0
TEXT
  5
94
  8
DIMNSIONS
 62
     7
 10
-36.041666666666671
 20
-147.01833333333329
 30
0.0
 40
8.1442057291666661
  1
76
 41
0.7
 11
-36.041666666666671
 21
-138.87412760416669
 31
0.0
 73
     3
  0
LINE
  5
95
  8
DIMNSIONS
  6
CONTINUOUS
 62
     7
 10
-74.750000000000014
 20
-56.25
 30
0.0
 11
-131.0
 21
-56.25
 31
0.0
  0
LINE
  5
96
  8
DIMNSIONS
  6
CONTINUOUS
 62
     7
 10
-74.750000000000014
 20
206.75
 30
0.0
 11
-131.0
 21
206.75
 31
0.0
  0
LINE
  5
97
  8
DIMNSIONS
  6
CONTINUOUS
 62
     7
 10
-125.0
 20
-56.25
 30
0.0
 11
-125.0
 21
206.75
 31
0.0
  0
LINE
  5
98
  8
DIMNSIONS
  6
CONTINUOUS
 62
     7
 10
-125.0
 20
-56.25
 30
0.0
 11
-127.01011938545069
 21
-48.748132324218737
 31
0.0
  0
LINE
  5
99
  8
DIMNSIONS
  6
CONTINUOUS
 62
     7
 10
-125.0
 20
-56.25
 30
0.0
 11
-122.98988061454919
 21
-48.748132324218737
 31
0.0
  0
LINE
  5
9A
  8
DIMNSIONS
  6
CONTINUOUS
 62
     7
 10
-125.0
 20
206.75
 30
0.0
 11
-122.98988061454919
 21
199.24813232421869
 31
0.0
  0
LINE
  5
9B
  8
DIMNSIONS
  6
CONTINUOUS
 62
     7
 10
-125.0
 20
206.75
 30
0.0
 11
-127.01011938545069
 21
199.24813232421869
 31
0.0
  0
TEXT
  5
9C
  8
DIMNSIONS
 62
     7
 10
-127.9816666666666
 20
67.3125
 30
0.0
 40
8.1442057291666661
  1
263
 50
90.0
 41
0.7
 11
-136.12587239583331
 21
67.3125
 31
0.0
 73
     3
  0
LINE
  5
9D
  8
DIMNSIONS
  6
CONTINUOUS
 62
     7
 10
-74.750000000000014
 20
-42.25
 30
0.0
 11
-93.499999999999986
 21
-42.25
 31
0.0
  0
LINE
  5
9E
  8
DIMNSIONS
  6
CONTINUOUS
 62
     7
 10
-74.750000000000014
 20
192.75
 30
0.0
 11
-93.499999999999986
 21
192.75
 31
0.0
  0
LINE
  5
9F
  8
DIMNSIONS
  6
CONTINUOUS
 62
     7
 10
-87.500000000000014
 20
-42.25
 30
0.0
 11
-87.500000000000014
 21
192.75
 31
0.0
  0
LINE
  5
A0
  8
DIMNSIONS
  6
CONTINUOUS
 62
     7
 10
-87.500000000000014
 20
-42.25
 30
0.0
 11
-89.51011938545075
 21
-34.748132324218751
 31
0.0
  0
LINE
  5
A1
  8
DIMNSIONS
  6
CONTINUOUS
 62
     7
 10
-87.500000000000014
 20
-42.25
 30
0.0
 11
-85.489880614549264
 21
-34.748132324218751
 31
0.0
  0
LINE
  5
A2
  8
DIMNSIONS
  6
CONTINUOUS
 62
     7
 10
-87.500000000000014
 20
192.75
 30
0.0
 11
-85.489880614549264
 21
185.24813232421869
 31
0.0
  0
LINE
  5
A3
  8
DIMNSIONS
  6
CONTINUOUS
 62
     7
 10
-87.500000000000014
 20
192.75
 30
0.0
 11
-89.51011938545075
 21
185.24813232421869
 31
0.0
  0
TEXT
  5
A4
  8
DIMNSIONS
 62
     7
 10
-90.481666666666655
 20
67.3125
 30
0.0
 40
8.1442057291666661
  1
235
 50
90.0
 41
0.7
 11
-98.625872395833341
 21
67.3125
 31
0.0
 73
     3
  0
LINE
  5
A5
  8
DIMNSIONS
  6
CONTINUOUS
 62
     7
 10
-60.250000000000021
 20
-49.25
 30
0.0
 11
-112.25
 21
-49.25
 31
0.0
  0
LINE
  5
A6
  8
DIMNSIONS
  6
CONTINUOUS
 62
     7
 10
-60.250000000000021
 20
199.75
 30
0.0
 11
-112.25
 21
199.75
 31
0.0
  0
LINE
  5
A7
  8
DIMNSIONS
  6
CONTINUOUS
 62
     7
 10
-106.25
 20
-49.25
 30
0.0
 11
-106.25
 21
199.75
 31
0.0
  0
LINE
  5
A8
  8
DIMNSIONS
  6
CONTINUOUS
 62
     7
 10
-106.25
 20
-49.25
 30
0.0
 11
-108.26011938545069
 21
-41.748132324218737
 31
0.0
  0
LINE
  5
A9
  8
DIMNSIONS
  6
CONTINUOUS
 62
     7
 10
-106.25
 20
-49.25
 30
0.0
 11
-104.23988061454919
 21
-41.748132324218737
 31
0.0
  0
LINE
  5
AA
  8
DIMNSIONS
  6
CONTINUOUS
 62
     7
 10
-106.25
 20
199.75
 30
0.0
 11
-104.23988061454919
 21
192.24813232421869
 31
0.0
  0
LINE
  5
AB
  8
DIMNSIONS
  6
CONTINUOUS
 62
     7
 10
-106.25
 20
199.75
 30
0.0
 11
-108.26011938545069
 21
192.24813232421869
 31
0.0
  0
TEXT
  5
AC
  8
DIMNSIONS
 62
     7
 10
-109.2316666666666
 20
67.3125
 30
0.0
 40
8.1442057291666661
  1
249
 50
90.0
 41
0.7
 11
-117.3758723958333
 21
67.3125
 31
0.0
 73
     3
  0
LINE
  5
AD
  8
DIMNSIONS
  6
CONTINUOUS
 62
     7
 10
-30.750000000000011
 20
-50.75
 30
0.0
 11
-30.750000000000011
 21
-81.0
 31
0.0
  0
LINE
  5
AE
  8
DIMNSIONS
  6
CONTINUOUS
 62
     7
 10
-2.7500000000000142
 20
-50.75
 30
0.0
 11
-2.7500000000000142
 21
-81.0
 31
0.0
  0
LINE
  5
AF
  8
DIMNSIONS
  6
CONTINUOUS
 62
     7
 10
-30.750000000000011
 20
-75.0
 30
0.0
 11
-2.7500000000000142
 21
-75.0
 31
0.0
  0
LINE
  5
B0
  8
DIMNSIONS
  6
CONTINUOUS
 62
     7
 10
-30.750000000000011
 20
-75.0
 30
0.0
 11
-23.248132324218759
 21
-72.989880614549264
 31
0.0
  0
LINE
  5
B1
  8
DIMNSIONS
  6
CONTINUOUS
 62
     7
 10
-30.750000000000011
 20
-75.0
 30
0.0
 11
-23.248132324218759
 21
-77.010119385450736
 31
0.0
  0
LINE
  5
B2
  8
DIMNSIONS
  6
CONTINUOUS
 62
     7
 10
-2.7500000000000142
 20
-75.0
 30
0.0
 11
-10.25186767578127
 21
-77.010119385450736
 31
0.0
  0
LINE
  5
B3
  8
DIMNSIONS
  6
CONTINUOUS
 62
     7
 10
-2.7500000000000142
 20
-75.0
 30
0.0
 11
-10.25186767578127
 21
-72.989880614549264
 31
0.0
  0
TEXT
  5
B4
  8
DIMNSIONS
 62
     7
 10
-22.041666666666689
 20
-72.018333333333331
 30
0.0
 40
8.1442057291666661
  1
28
 41
0.7
 11
-22.041666666666689
 21
-63.874127604166652
 31
0.0
 73
     3
  0
LINE
  5
B5
  8
DIMNSIONS
  6
CONTINUOUS
 62
     7
 10
-58.750000000000021
 20
-50.75
 30
0.0
 11
-58.750000000000021
 21
-81.0
 31
0.0
  0
LINE
  5
B6
  8
DIMNSIONS
  6
CONTINUOUS
 62
     7
 10
-30.750000000000011
 20
-50.75
 30
0.0
 11
-30.750000000000011
 21
-81.0
 31
0.0
  0
LINE
  5
B7
  8
DIMNSIONS
  6
CONTINUOUS
 62
     7
 10
-58.750000000000021
 20
-75.0
 30
0.0
 11
-30.750000000000011
 21
-75.0
 31
0.0
  0
LINE
  5
B8
  8
DIMNSIONS
  6
CONTINUOUS
 62
     7
 10
-58.750000000000021
 20
-75.0
 30
0.0
 11
-51.248132324218759
 21
-72.989880614549264
 31
0.0
  0
LINE
  5
B9
  8
DIMNSIONS
  6
CONTINUOUS
 62
     7
 10
-58.750000000000021
 20
-75.0
 30
0.0
 11
-51.248132324218759
 21
-77.010119385450736
 31
0.0
  0
LINE
  5
BA
  8
DIMNSIONS
  6
CONTINUOUS
 62
     7
 10
-30.750000000000011
 20
-75.0
 30
0.0
 11
-38.251867675781277
 21
-77.010119385450736
 31
0.0
  0
LINE
  5
BB
  8
DIMNSIONS
  6
CONTINUOUS
 62
     7
 10
-30.750000000000011
 20
-75.0
 30
0.0
 11
-38.251867675781277
 21
-72.989880614549264
 31
0.0
  0
TEXT
  5
BC
  8
DIMNSIONS
 62
     7
 10
-50.041666666666671
 20
-72.018333333333331
 30
0.0
 40
8.1442057291666661
  1
28
 41
0.7
 11
-50.041666666666671
 21
-63.874127604166652
 31
0.0
 73
     3
  0
LINE
  5
BD
  8
DIMNSIONS
  6
CONTINUOUS
 62
     7
 10
-1.6250000000020319
 20
-51.198557158511512
 30
0.0
 11
12.5
 21
-75.663774815425398
 31
0.0
  0
LINE
  5
BE
  8
DIMNSIONS
  6
CONTINUOUS
 62
     7
 10
-1.6250000000020319
 20
-51.198557158511512
 30
0.0
 11
3.96175609367809
 21
-56.593624805763419
 31
0.0
  0
LINE
  5
BF
  8
DIMNSIONS
  6
CONTINUOUS
 62
     7
 10
-1.6250000000020319
 20
-51.198557158511512
 30
0.0
 11
0.5157388782465091
 21
-58.664200843007272
 31
0.0
  0
LINE
  5
C0
  8
DIMNSIONS
  6
CONTINUOUS
 62
     7
 10
12.5
 20
-75.663774815425398
 30
0.0
 11
55.54166666666665
 21
-75.663774815425398
 31
0.0
  0
TEXT
  5
C1
  8
DIMNSIONS
 62
     7
 10
18.5
 20
-72.682108148758743
 30
0.0
 40
8.1442057291666661
  1
6-\U+03C64.5
 41
0.7
 11
18.5
 21
-64.537902419592072
 31
0.0
 73
     3
  0
LINE
  5
C2
  8
DIMNSIONS
  6
CONTINUOUS
 62
     7
 10
-72.799999999999983
 20
-106.2506250976873
 30
0.0
 11
-93.499999999999986
 21
-106.2506250976873
 31
0.0
  0
LINE
  5
C3
  8
DIMNSIONS
  6
CONTINUOUS
 62
     7
 10
-55.538387679126082
 20
-101.25
 30
0.0
 11
-93.499999999999986
 21
-101.25
 31
0.0
  0
LINE
  5
C4
  8
DIMNSIONS
  6
CONTINUOUS
 62
     7
 10
-87.500000000000014
 20
-101.25
 30
0.0
 11
-87.500000000000014
 21
-106.2506250976873
 31
0.0
  0
LINE
  5
C5
  8
DIMNSIONS
  6
CONTINUOUS
 62
     7
 10
-87.500000000000014
 20
-106.2506250976873
 30
0.0
 11
-87.500000000000014
 21
-121.2506250976873
 31
0.0
  0
LINE
  5
C6
  8
DIMNSIONS
  6
CONTINUOUS
 62
     7
 10
-87.500000000000014
 20
-106.2506250976873
 30
0.0
 11
-85.489880614549264
 21
-113.7524927734686
 31
0.0
  0
LINE
  5
C7
  8
DIMNSIONS
  6
CONTINUOUS
 62
     7
 10
-87.500000000000014
 20
-106.2506250976873
 30
0.0
 11
-89.51011938545075
 21
-113.7524927734686
 31
0.0
  0
LINE
  5
C8
  8
DIMNSIONS
  6
CONTINUOUS
 62
     7
 10
-87.500000000000014
 20
-101.25
 30
0.0
 11
-87.500000000000014
 21
-88.458333333333343
 31
0.0
  0
LINE
  5
C9
  8
DIMNSIONS
  6
CONTINUOUS
 62
     7
 10
-87.500000000000014
 20
-101.25
 30
0.0
 11
-89.51011938545075
 21
-93.74813232421873
 31
0.0
  0
LINE
  5
CA
  8
DIMNSIONS
  6
CONTINUOUS
 62
     7
 10
-87.500000000000014
 20
-101.25
 30
0.0
 11
-85.489880614549264
 21
-93.74813232421873
 31
0.0
  0
TEXT
  5
CB
  8
DIMNSIONS
 62
     7
 10
-90.481666666666683
 20
-93.749999999999957
 30
0.0
 40
8.1442057291666661
  1
5
 50
90.0
 41
0.7
 11
-98.625872395833355
 21
-93.749999999999957
 31
0.0
 73
     3
  0
TEXT
  5
CC
  8
DATA
 62
     7
 10
250.0
 20
-210.288246439261
 30
0.0
 40
7.3297851562499989
  1
GTB-MHDMI1.3-441
 41
0.7
 11
250.0
 21
-202.95846128301099
 31
0.0
 73
     3
  0
TEXT
  5
CD
  8
DATA
 62
     7
 10
250.0
 20
-187.7900342102682
 30
0.0
 40
7.3297851562499989
  1
Gefen
 41
0.7
 11
250.0
 21
-180.46024905401811
 31
0.0
 73
     3
  0
TEXT
  5
CE
  8
DATA
 62
     7
 10
244.24030053283789
 20
-197.8206909928148
 30
0.0
 40
4.8865311328124994
  1
4\U+00D71HDMI1.3切替器
 41
0.7
 11
244.24030053283789
 21
-192.9341598600023
 31
0.0
 73
     3
  0
TEXT
  5
CF
  8
DATA
 62
     7
 10
-139.99999999999989
 20
-230.21870421026821
 30
0.0
 40
4.8865234374999993
  1
仕様および外観は予告なく変更されることがありますので、ご了承ください。
 41
0.7
 11
-139.99999999999989
 21
-225.3321807727682
 31
0.0
 73
     3
  0
LINE
  5
D0
  8
DATA
  6
CONTINUOUS
 62
     7
 10
62.5
 20
-131.25
 30
0.0
 11
325.5
 21
-131.25
 31
0.0
  0
LINE
  5
D1
  8
DATA
  6
CONTINUOUS
 62
     7
 10
-68.750000000000014
 20
-131.25
 30
0.0
 11
-68.750000000000014
 21
-108.25
 31
0.0
  0
LINE
  5
D2
  8
DATA
  6
CONTINUOUS
 62
     7
 10
7.2499999999999867
 20
-131.25
 30
0.0
 11
-68.750000000000014
 21
-131.25
 31
0.0
  0
LINE
  5
D3
  8
DATA
  6
CONTINUOUS
 62
     7
 10
7.2499999999999867
 20
-108.25
 30
0.0
 11
7.2499999999999867
 21
-131.25
 31
0.0
  0
LINE
  5
D4
  8
DATA
  6
CONTINUOUS
 62
     7
 10
-66.750000000000014
 20
-106.25
 30
0.0
 11
5.2499999999999849
 21
-106.25
 31
0.0
  0
LINE
  5
D5
  8
DATA
  6
CONTINUOUS
 62
     7
 10
-68.750000000000014
 20
-53.75
 30
0.0
 11
-68.750000000000014
 21
204.25
 31
0.0
  0
LINE
  5
D6
  8
DATA
  6
CONTINUOUS
 62
     7
 10
4.7499999999999849
 20
-56.25
 30
0.0
 11
-66.250000000000014
 21
-56.25
 31
0.0
  0
LINE
  5
D7
  8
DATA
  6
CONTINUOUS
 62
     7
 10
7.2499999999999867
 20
204.25
 30
0.0
 11
7.2499999999999867
 21
-53.75
 31
0.0
  0
LINE
  5
D8
  8
DATA
  6
CONTINUOUS
 62
     7
 10
-66.250000000000014
 20
206.75
 30
0.0
 11
4.7499999999999849
 21
206.75
 31
0.0
  0
LINE
  5
D9
  8
DATA
  6
CONTINUOUS
 62
     7
 10
7.2499999999999867
 20
-42.25
 30
0.0
 11
-68.750000000000014
 21
-42.25
 31
0.0
  0
LINE
  5
DA
  8
DATA
  6
CONTINUOUS
 62
     7
 10
-68.750000000000014
 20
192.75
 30
0.0
 11
7.2499999999999867
 21
192.75
 31
0.0
  0
CIRCLE
  5
DB
  8
DATA
  6
CONTINUOUS
 62
     7
 10
-30.750000000000011
 20
-49.25
 30
0.0
 40
2.25
  0
CIRCLE
  5
DC
  8
DATA
  6
CONTINUOUS
 62
     7
 10
-30.750000000000011
 20
-49.25
 30
0.0
 40
4.5
  0
CIRCLE
  5
DD
  8
DATA
  6
CONTINUOUS
 62
     7
 10
-58.750000000000021
 20
-49.25
 30
0.0
 40
2.25
  0
CIRCLE
  5
DE
  8
DATA
  6
CONTINUOUS
 62
     7
 10
-58.750000000000021
 20
-49.25
 30
0.0
 40
4.5
  0
CIRCLE
  5
DF
  8
DATA
  6
CONTINUOUS
 62
     7
 10
-2.7500000000000142
 20
-49.25
 30
0.0
 40
2.25
  0
CIRCLE
  5
E0
  8
DATA
  6
CONTINUOUS
 62
     7
 10
-2.7500000000000142
 20
-49.25
 30
0.0
 40
4.5
  0
CIRCLE
  5
E1
  8
DATA
  6
CONTINUOUS
 62
     7
 10
-30.750000000000011
 20
199.75
 30
0.0
 40
2.25
  0
CIRCLE
  5
E2
  8
DATA
  6
CONTINUOUS
 62
     7
 10
-30.750000000000011
 20
199.75
 30
0.0
 40
4.5
  0
CIRCLE
  5
E3
  8
DATA
  6
CONTINUOUS
 62
     7
 10
-58.750000000000021
 20
199.75
 30
0.0
 40
2.25
  0
CIRCLE
  5
E4
  8
DATA
  6
CONTINUOUS
 62
     7
 10
-58.750000000000021
 20
199.75
 30
0.0
 40
4.5
  0
CIRCLE
  5
E5
  8
DATA
  6
CONTINUOUS
 62
     7
 10
-2.7500000000000142
 20
199.75
 30
0.0
 40
2.25
  0
CIRCLE
  5
E6
  8
DATA
  6
CONTINUOUS
 62
     7
 10
-2.7500000000000142
 20
199.75
 30
0.0
 40
4.5
  0
LINE
  5
E7
  8
DATA
  6
CONTINUOUS
 62
     7
 10
7.2499999999999867
 20
-129.64999999999989
 30
0.0
 11
-68.750000000000014
 21
-129.64999999999989
 31
0.0
  0
ARC
  5
E8
  8
DATA
  6
CONTINUOUS
 62
     7
 10
-66.750000000000014
 20
-108.25
 30
0.0
 40
2.0
 50
90.0
 51
180.0
  0
ARC
  5
E9
  8
DATA
  6
CONTINUOUS
 62
     7
 10
5.2499999999999849
 20
-108.25
 30
0.0
 40
2.0
 50
0.0
 51
90.0
  0
TEXT
  5
EA
  8
DATA
 62
     7
 10
248.6639013587382
 20
-234.3060224457287
 30
0.0
 40
4.8865234374999993
  1
T.Ootake
 41
0.7
 11
248.6639013587382
 21
-229.41949900822871
 31
0.0
 73
     3
  0
LINE
  5
EB
  8
DATA
  6
CONTINUOUS
 62
     7
 10
-18.656585865309509
 20
-48.250000000163169
 30
0.0
 11
-10.8565858653095
 21
-48.250000000163169
 31
0.0
  0
LINE
  5
EC
  8
DATA
  6
CONTINUOUS
 62
     7
 10
-8.9830831734132488
 20
-43.750000000163169
 30
0.0
 11
-8.9830831734132488
 21
-42.250000000163183
 31
0.0
  0
LINE
  5
ED
  8
DATA
  6
CONTINUOUS
 62
     7
 10
-20.530088557205762
 20
-43.750000000163169
 30
0.0
 11
-20.530088557205762
 21
-42.250000000163183
 31
0.0
  0
LINE
  5
EE
  8
DATA
  6
CONTINUOUS
 62
     7
 10
-8.9830831734132488
 20
-43.750000000163169
 30
0.0
 11
-20.530088557205762
 21
-43.750000000163169
 31
0.0
  0
LINE
  5
EF
  8
DATA
  6
CONTINUOUS
 62
     7
 10
-10.8565858653095
 20
-48.250000000163169
 30
0.0
 11
-10.8565858653095
 21
-43.750000000163169
 31
0.0
  0
LINE
  5
F0
  8
DATA
  6
CONTINUOUS
 62
     7
 10
-18.656585865309509
 20
-48.250000000163169
 30
0.0
 11
-18.656585865309509
 21
-43.750000000163169
 31
0.0
  0
CIRCLE
  5
F1
  8
DATA
  6
CONTINUOUS
 62
     7
 10
-14.750000000000011
 20
-114.14999999999991
 30
0.0
 40
3.9000000000000048
  0
POLYLINE
  5
F2
  8
DATA
  6
CONTINUOUS
 62
     7
 66
     1
 10
0.0
 20
0.0
 30
0.0
 70
     1
  0
VERTEX
  5
354
  8
DATA
  6
CONTINUOUS
 62
     7
 10
-17.636751345948142
 20
-109.14999999999991
 30
0.0
  0
VERTEX
  5
355
  8
DATA
  6
CONTINUOUS
 62
     7
 10
-20.523502691896269
 20
-114.14999999999991
 30
0.0
  0
VERTEX
  5
356
  8
DATA
  6
CONTINUOUS
 62
     7
 10
-17.636751345948142
 20
-119.15000000000001
 30
0.0
  0
VERTEX
  5
357
  8
DATA
  6
CONTINUOUS
 62
     7
 10
-11.86324865405188
 20
-119.15000000000001
 30
0.0
  0
VERTEX
  5
358
  8
DATA
  6
CONTINUOUS
 62
     7
 10
-8.9764973081037578
 20
-114.14999999999991
 30
0.0
  0
VERTEX
  5
359
  8
DATA
  6
CONTINUOUS
 62
     7
 10
-11.86324865405188
 20
-109.14999999999991
 30
0.0
  0
SEQEND
  5
35A
  8
DATA
  6
CONTINUOUS
 62
     7
  0
CIRCLE
  5
FB
  8
DATA
  6
CONTINUOUS
 62
     7
 10
-14.750000000000011
 20
-114.14999999999991
 30
0.0
 40
2.9000000000000048
  0
CIRCLE
  5
FC
  8
DATA
  6
CONTINUOUS
 62
     7
 10
-14.750000000000011
 20
-114.14999999999991
 30
0.0
 40
0.75
  0
CIRCLE
  5
FD
  8
DATA
  6
CONTINUOUS
 62
     7
 10
-45.250000000000021
 20
-119.15000000000001
 30
0.0
 40
3.0
  0
CIRCLE
  5
FE
  8
DATA
  6
CONTINUOUS
 62
     7
 10
-45.250000000000021
 20
-119.15000000000001
 30
0.0
 40
1.75
  0
LINE
  5
FF
  8
DATA
  6
CONTINUOUS
 62
     7
 10
-48.250000000000021
 20
-42.550000000000011
 30
0.0
 11
-42.250000000000007
 21
-42.550000000000011
 31
0.0
  0
LINE
  5
100
  8
DATA
  6
CONTINUOUS
 62
     7
 10
-48.250000000000021
 20
-42.550000000000011
 30
0.0
 11
-48.250000000000021
 21
-42.25
 31
0.0
  0
LINE
  5
101
  8
DATA
  6
CONTINUOUS
 62
     7
 10
-42.250000000000007
 20
-42.550000000000011
 30
0.0
 11
-42.250000000000007
 21
-42.25
 31
0.0
  0
CIRCLE
  5
102
  8
DATA
  6
CONTINUOUS
 62
     7
 10
-30.727307686634461
 20
-23.427145861934431
 30
0.0
 40
1.1749999999999261
  0
POLYLINE
  5
103
  8
DATA
  6
CONTINUOUS
 62
     7
 66
     1
 10
0.0
 20
0.0
 30
0.0
 70
     1
  0
VERTEX
  5
35B
  8
DATA
  6
CONTINUOUS
 62
     7
 10
-30.727307686634461
 20
-20.727145861934609
 30
0.0
  0
VERTEX
  5
35C
  8
DATA
  6
CONTINUOUS
 62
     7
 10
-33.065576276852141
 20
-22.077145861934589
 30
0.0
  0
VERTEX
  5
35D
  8
DATA
  6
CONTINUOUS
 62
     7
 10
-33.065576276852141
 20
-24.77714586193423
 30
0.0
  0
VERTEX
  5
35E
  8
DATA
  6
CONTINUOUS
 62
     7
 10
-30.727307686634461
 20
-26.127145861934171
 30
0.0
  0
VERTEX
  5
35F
  8
DATA
  6
CONTINUOUS
 62
     7
 10
-28.389039096416631
 20
-24.77714586193423
 30
0.0
  0
VERTEX
  5
360
  8
DATA
  6
CONTINUOUS
 62
     7
 10
-28.389039096416631
 20
-22.077145861934589
 30
0.0
  0
SEQEND
  5
361
  8
DATA
  6
CONTINUOUS
 62
     7
  0
CIRCLE
  5
10C
  8
DATA
  6
CONTINUOUS
 62
     7
 10
-55.727307686634369
 20
-23.427145861934431
 30
0.0
 40
1.1750000000000389
  0
POLYLINE
  5
10D
  8
DATA
  6
CONTINUOUS
 62
     7
 66
     1
 10
0.0
 20
0.0
 30
0.0
 70
     1
  0
VERTEX
  5
362
  8
DATA
  6
CONTINUOUS
 62
     7
 10
-55.727307686634369
 20
-20.727145861934609
 30
0.0
  0
VERTEX
  5
363
  8
DATA
  6
CONTINUOUS
 62
     7
 10
-58.065576276852262
 20
-22.077145861934589
 30
0.0
  0
VERTEX
  5
364
  8
DATA
  6
CONTINUOUS
 62
     7
 10
-58.065576276852262
 20
-24.77714586193423
 30
0.0
  0
VERTEX
  5
365
  8
DATA
  6
CONTINUOUS
 62
     7
 10
-55.727307686634369
 20
-26.127145861934171
 30
0.0
  0
VERTEX
  5
366
  8
DATA
  6
CONTINUOUS
 62
     7
 10
-53.38903909641634
 20
-24.77714586193423
 30
0.0
  0
VERTEX
  5
367
  8
DATA
  6
CONTINUOUS
 62
     7
 10
-53.38903909641634
 20
-22.077145861934589
 30
0.0
  0
SEQEND
  5
368
  8
DATA
  6
CONTINUOUS
 62
     7
  0
LINE
  5
116
  8
DATA
  6
CONTINUOUS
 62
     7
 10
-37.625544476445612
 20
-27.427145861934289
 30
0.0
 11
-48.829070896822813
 21
-27.427145861934289
 31
0.0
  0
LINE
  5
117
  8
DATA
  6
CONTINUOUS
 62
     7
 10
-49.641570896822699
 20
-19.427145861934601
 30
0.0
 11
-36.813044476445597
 21
-19.427145861934601
 31
0.0
  0
LINE
  5
118
  8
DATA
  6
CONTINUOUS
 62
     7
 10
-50.212287744074359
 20
-26.243273494317268
 30
0.0
 11
-51.02478774407426
 21
-21.043273494317649
 31
0.0
  0
LINE
  5
119
  8
DATA
  6
CONTINUOUS
 62
     7
 10
-35.429827629194037
 20
-21.043273494317649
 30
0.0
 11
-36.242327629194037
 21
-26.243273494317268
 31
0.0
  0
CIRCLE
  5
11A
  8
DATA
  6
CONTINUOUS
 62
     7
 10
-43.253937457109139
 20
-21.790837690780911
 30
0.0
 40
0.5
  0
ARC
  5
11B
  8
DATA
  6
CONTINUOUS
 62
     7
 10
-49.641570896822699
 20
-20.827145861934589
 30
0.0
 40
1.399999999999977
 50
90.0
 51
188.88065915052059
  0
ARC
  5
11C
  8
DATA
  6
CONTINUOUS
 62
     7
 10
-36.813044476445597
 20
-20.827145861934589
 30
0.0
 40
1.400000000000019
 50
351.11934084947939
 51
90.0
  0
ARC
  5
11D
  8
DATA
  6
CONTINUOUS
 62
     7
 10
-48.829070896822813
 20
-26.027145861934152
 30
0.0
 40
1.4000000000000281
 50
188.88065915052289
 51
270.0
  0
ARC
  5
11E
  8
DATA
  6
CONTINUOUS
 62
     7
 10
-37.625544476445612
 20
-26.027145861934152
 30
0.0
 40
1.4000000000001469
 50
270.0
 51
351.11934084947723
  0
CIRCLE
  5
11F
  8
DATA
  6
CONTINUOUS
 62
     7
 10
-45.753937457109139
 20
-21.790837690780911
 30
0.0
 40
0.5
  0
CIRCLE
  5
120
  8
DATA
  6
CONTINUOUS
 62
     7
 10
-48.253937457109139
 20
-21.790837690780911
 30
0.0
 40
0.5
  0
CIRCLE
  5
121
  8
DATA
  6
CONTINUOUS
 62
     7
 10
-40.753937457109132
 20
-21.790837690780911
 30
0.0
 40
0.5
  0
CIRCLE
  5
122
  8
DATA
  6
CONTINUOUS
 62
     7
 10
-38.253937457109132
 20
-21.790837690780911
 30
0.0
 40
0.5
  0
CIRCLE
  5
123
  8
DATA
  6
CONTINUOUS
 62
     7
 10
-44.449448633180367
 20
-25.409358109543209
 30
0.0
 40
0.5
  0
CIRCLE
  5
124
  8
DATA
  6
CONTINUOUS
 62
     7
 10
-46.949448633180367
 20
-25.409358109543209
 30
0.0
 40
0.5
  0
CIRCLE
  5
125
  8
DATA
  6
CONTINUOUS
 62
     7
 10
-41.949448633180367
 20
-25.409358109543209
 30
0.0
 40
0.5
  0
CIRCLE
  5
126
  8
DATA
  6
CONTINUOUS
 62
     7
 10
-39.449448633180381
 20
-25.409358109543209
 30
0.0
 40
0.5
  0
TEXT
  5
127
  8
DATA
 62
     7
 10
-48.100585469734398
 20
-31.968437640188121
 30
0.0
 40
2.4432617187500001
  1
RS-232
 41
0.7
 11
-48.100585469734398
 21
-29.52517592143813
 31
0.0
 73
     3
  0
TEXT
  5
128
  8
DATA
 62
     7
 10
-49.781611656891457
 20
-40.893723313782978
 30
0.0
 40
2.4432617187500001
  1
EXT IR
 41
0.7
 11
-49.781611656891457
 21
-38.450461595032976
 31
0.0
 73
     3
  0
TEXT
  5
129
  8
DATA
 62
     7
 10
-18.858805580196432
 20
-40.893723313782978
 30
0.0
 40
2.4432617187500001
  1
5V DC
 41
0.7
 11
-18.858805580196432
 21
-38.450461595032976
 31
0.0
 73
     3
  0
ARC
  5
12A
  8
DATA
  6
CONTINUOUS
 62
     7
 10
4.7499999999999849
 20
204.25
 30
0.0
 40
2.5
 50
0.0
 51
90.0
  0
ARC
  5
12B
  8
DATA
  6
CONTINUOUS
 62
     7
 10
-66.250000000000014
 20
204.25
 30
0.0
 40
2.5
 50
90.0
 51
180.0
  0
ARC
  5
12C
  8
DATA
  6
CONTINUOUS
 62
     7
 10
-66.250000000000014
 20
-53.75
 30
0.0
 40
2.5
 50
180.0
 51
270.0
  0
ARC
  5
12D
  8
DATA
  6
CONTINUOUS
 62
     7
 10
4.7499999999999849
 20
-53.75
 30
0.0
 40
2.5
 50
270.0
 51
0.0
  0
CIRCLE
  5
12E
  8
DATA
  6
CONTINUOUS
 62
     7
 10
-3.7500000000000142
 20
7.652385291732088
 30
0.0
 40
1.400000000000005
  0
TEXT
  5
12F
  8
DATA
 62
     7
 10
-7.0558120124865118
 20
1.82575130003598
 30
0.0
 40
2.0360514322916661
  1
Power
 41
0.7
 11
-7.0558120124865118
 21
3.8618027323276469
 31
0.0
 73
     3
  0
CIRCLE
  5
130
  8
DATA
  6
CONTINUOUS
 62
     7
 10
-57.250000000000021
 20
13.75
 30
0.0
 40
1.5
  0
CIRCLE
  5
131
  8
DATA
  6
CONTINUOUS
 62
     7
 10
-46.750000000000021
 20
13.75
 30
0.0
 40
1.400000000000005
  0
CIRCLE
  5
132
  8
DATA
  6
CONTINUOUS
 62
     7
 10
-39.750000000000007
 20
13.75
 30
0.0
 40
1.400000000000005
  0
CIRCLE
  5
133
  8
DATA
  6
CONTINUOUS
 62
     7
 10
-32.750000000000007
 20
13.75
 30
0.0
 40
1.400000000000005
  0
CIRCLE
  5
134
  8
DATA
  6
CONTINUOUS
 62
     7
 10
-25.750000000000011
 20
13.75
 30
0.0
 40
1.400000000000005
  0
TEXT
  5
135
  8
DATA
 62
     7
 10
-60.589528454532392
 20
17.34525338192098
 30
0.0
 40
2.0360514322916661
  1
Input
 41
0.7
 11
-60.589528454532392
 21
19.381304814212651
 31
0.0
 73
     3
  0
TEXT
  5
136
  8
DATA
 62
     7
 10
-47.479755012095943
 20
17.34525338192098
 30
0.0
 40
2.0360514322916661
  1
1
 41
0.7
 11
-47.479755012095943
 21
19.381304814212651
 31
0.0
 73
     3
  0
TEXT
  5
137
  8
DATA
 62
     7
 10
-40.479755012095929
 20
17.34525338192098
 30
0.0
 40
2.0360514322916661
  1
2
 41
0.7
 11
-40.479755012095929
 21
19.381304814212651
 31
0.0
 73
     3
  0
TEXT
  5
138
  8
DATA
 62
     7
 10
-33.479755012095943
 20
17.34525338192098
 30
0.0
 40
2.0360514322916661
  1
3
 41
0.7
 11
-33.479755012095943
 21
19.381304814212651
 31
0.0
 73
     3
  0
TEXT
  5
139
  8
DATA
 62
     7
 10
-26.479755012095939
 20
17.34525338192098
 30
0.0
 40
2.0360514322916661
  1
4
 41
0.7
 11
-26.479755012095939
 21
19.381304814212651
 31
0.0
 73
     3
  0
POLYLINE
  5
13A
  8
DATA
  6
CONTINUOUS
 62
     7
 66
     1
 10
0.0
 20
0.0
 30
0.0
 70
     1
  0
VERTEX
  5
369
  8
DATA
  6
CONTINUOUS
 62
     7
 10
-34.500000000000007
 20
42.5
 30
0.0
  0
VERTEX
  5
36A
  8
DATA
  6
CONTINUOUS
 62
     7
 10
-19.000000000000011
 20
42.5
 30
0.0
  0
VERTEX
  5
36B
  8
DATA
  6
CONTINUOUS
 62
     7
 10
-19.000000000000011
 20
27.0
 30
0.0
  0
VERTEX
  5
36C
  8
DATA
  6
CONTINUOUS
 62
     7
 10
-34.500000000000007
 20
27.0
 30
0.0
  0
SEQEND
  5
36D
  8
DATA
  6
CONTINUOUS
 62
     7
  0
TEXT
  5
141
  8
DATA
 62
     7
 10
-28.229436579481678
 20
22.835485770178561
 30
0.0
 40
2.0360514322916661
  1
IR
 41
0.7
 11
-28.229436579481678
 21
24.871537202470229
 31
0.0
 73
     3
  0
TEXT
  5
142
  8
DATA
 62
     7
 10
-61.449445298576961
 20
87.606839656186494
 30
0.0
 40
8.1442057291666661
  1
TOOL Box
 41
0.7
 11
-61.449445298576961
 21
95.751045385353166
 31
0.0
 73
     3
  0
TEXT
  5
143
  8
DATA
 62
     7
 10
-45.287905358641837
 20
77.636890473525483
 30
0.0
 40
4.8865234374999993
  1
4X1 Switcher
 41
0.7
 11
-45.287905358641837
 21
82.5234139110255
 31
0.0
 73
     3
  0
TEXT
  5
144
  8
DATA
 62
     7
 10
-37.389526793209242
 20
67.856289878120833
 30
0.0
 40
4.8865234374999993
  1
for 
 41
0.7
 11
-37.389526793209242
 21
72.742813315620836
 31
0.0
 73
     3
  0
TEXT
  5
145
  8
DATA
 62
     7
 10
-24.537334533469689
 20
67.856289878120833
 30
0.0
 40
4.8865234374999993
  1
HDMI 
 41
0.7
 11
-24.537334533469689
 21
72.742813315620836
 31
0.0
 73
     3
  0
POLYLINE
  5
146
  8
DATA
  6
CONTINUOUS
 62
     7
 66
     1
 10
0.0
 20
0.0
 30
0.0
 70
     1
  0
VERTEX
  5
36E
  8
DATA
  6
CONTINUOUS
 62
     7
 10
-47.49714622680672
 20
182.0655721179896
 30
0.0
  0
VERTEX
  5
36F
  8
DATA
  6
CONTINUOUS
 62
     7
 10
-44.708758547680723
 20
182.81271834479639
 30
0.0
  0
VERTEX
  5
370
  8
DATA
  6
CONTINUOUS
 62
     7
 10
-43.961612320874004
 20
185.6011060239224
 30
0.0
  0
VERTEX
  5
371
  8
DATA
  6
CONTINUOUS
 62
     7
 10
-46.002853773193287
 20
187.6423474762417
 30
0.0
  0
VERTEX
  5
372
  8
DATA
  6
CONTINUOUS
 62
     7
 10
-48.791241452319319
 20
186.89520124943499
 30
0.0
  0
VERTEX
  5
373
  8
DATA
  6
CONTINUOUS
 62
     7
 10
-49.538387679126082
 20
184.1068135703089
 30
0.0
  0
SEQEND
  5
374
  8
DATA
  6
CONTINUOUS
 62
     7
  0
CIRCLE
  5
14F
  8
DATA
  6
CONTINUOUS
 62
     7
 10
-46.750000000000021
 20
184.85395979711569
 30
0.0
 40
1.2750000000000341
  0
LINE
  5
150
  8
DATA
  6
CONTINUOUS
 62
     7
 10
-38.900000000000048
 20
177.79110912835151
 30
0.0
 11
-54.59999999999998
 21
177.79110912835151
 31
0.0
  0
LINE
  5
151
  8
DATA
  6
CONTINUOUS
 62
     7
 10
-38.900000000000048
 20
177.79110912835151
 30
0.0
 11
-38.900000000000048
 21
173.4911091283513
 31
0.0
  0
LINE
  5
152
  8
DATA
  6
CONTINUOUS
 62
     7
 10
-54.59999999999998
 20
177.79110912835151
 30
0.0
 11
-54.59999999999998
 21
173.4911091283513
 31
0.0
  0
LINE
  5
153
  8
DATA
  6
CONTINUOUS
 62
     7
 10
-38.900000000000048
 20
173.4911091283513
 30
0.0
 11
-41.500000000000007
 21
171.79110912835131
 31
0.0
  0
LINE
  5
154
  8
DATA
  6
CONTINUOUS
 62
     7
 10
-54.59999999999998
 20
173.4911091283513
 30
0.0
 11
-52.000000000000021
 21
171.79110912835131
 31
0.0
  0
LINE
  5
155
  8
DATA
  6
CONTINUOUS
 62
     7
 10
-41.500000000000007
 20
171.79110912835131
 30
0.0
 11
-52.000000000000021
 21
171.79110912835131
 31
0.0
  0
POLYLINE
  5
156
  8
DATA
  6
CONTINUOUS
 62
     7
 66
     1
 10
0.0
 20
0.0
 30
0.0
 70
     1
  0
VERTEX
  5
375
  8
DATA
  6
CONTINUOUS
 62
     7
 10
-51.750000000000021
 20
175.50494595385859
 30
0.0
  0
VERTEX
  5
376
  8
DATA
  6
CONTINUOUS
 62
     7
 10
-41.750000000000007
 20
175.50494595385859
 30
0.0
  0
VERTEX
  5
377
  8
DATA
  6
CONTINUOUS
 62
     7
 10
-41.750000000000007
 20
175.00494595385859
 30
0.0
  0
VERTEX
  5
378
  8
DATA
  6
CONTINUOUS
 62
     7
 10
-51.750000000000021
 20
175.00494595385859
 30
0.0
  0
SEQEND
  5
379
  8
DATA
  6
CONTINUOUS
 62
     7
  0
POLYLINE
  5
15D
  8
DATA
  6
CONTINUOUS
 62
     7
 66
     1
 10
0.0
 20
0.0
 30
0.0
 70
     1
  0
VERTEX
  5
37A
  8
DATA
  6
CONTINUOUS
 62
     7
 10
-14.0028537731933
 20
182.0655721179896
 30
0.0
  0
VERTEX
  5
37B
  8
DATA
  6
CONTINUOUS
 62
     7
 10
-16.791241452319309
 20
182.81271834479639
 30
0.0
  0
VERTEX
  5
37C
  8
DATA
  6
CONTINUOUS
 62
     7
 10
-17.538387679126021
 20
185.6011060239224
 30
0.0
  0
VERTEX
  5
37D
  8
DATA
  6
CONTINUOUS
 62
     7
 10
-15.49714622680672
 20
187.6423474762417
 30
0.0
  0
VERTEX
  5
37E
  8
DATA
  6
CONTINUOUS
 62
     7
 10
-12.708758547680709
 20
186.89520124943499
 30
0.0
  0
VERTEX
  5
37F
  8
DATA
  6
CONTINUOUS
 62
     7
 10
-11.96161232087395
 20
184.1068135703089
 30
0.0
  0
SEQEND
  5
380
  8
DATA
  6
CONTINUOUS
 62
     7
  0
CIRCLE
  5
166
  8
DATA
  6
CONTINUOUS
 62
     7
 10
-14.750000000000011
 20
184.85395979711569
 30
0.0
 40
1.2750000000000341
  0
LINE
  5
167
  8
DATA
  6
CONTINUOUS
 62
     7
 10
-22.59999999999998
 20
177.79110912835151
 30
0.0
 11
-6.9000000000000483
 21
177.79110912835151
 31
0.0
  0
LINE
  5
168
  8
DATA
  6
CONTINUOUS
 62
     7
 10
-22.59999999999998
 20
177.79110912835151
 30
0.0
 11
-22.59999999999998
 21
173.4911091283513
 31
0.0
  0
LINE
  5
169
  8
DATA
  6
CONTINUOUS
 62
     7
 10
-6.9000000000000483
 20
177.79110912835151
 30
0.0
 11
-6.9000000000000483
 21
173.4911091283513
 31
0.0
  0
LINE
  5
16A
  8
DATA
  6
CONTINUOUS
 62
     7
 10
-22.59999999999998
 20
173.4911091283513
 30
0.0
 11
-20.000000000000011
 21
171.79110912835131
 31
0.0
  0
LINE
  5
16B
  8
DATA
  6
CONTINUOUS
 62
     7
 10
-6.9000000000000483
 20
173.4911091283513
 30
0.0
 11
-9.5000000000000142
 21
171.79110912835131
 31
0.0
  0
LINE
  5
16C
  8
DATA
  6
CONTINUOUS
 62
     7
 10
-20.000000000000011
 20
171.79110912835131
 30
0.0
 11
-9.5000000000000142
 21
171.79110912835131
 31
0.0
  0
POLYLINE
  5
16D
  8
DATA
  6
CONTINUOUS
 62
     7
 66
     1
 10
0.0
 20
0.0
 30
0.0
 70
     1
  0
VERTEX
  5
381
  8
DATA
  6
CONTINUOUS
 62
     7
 10
-19.750000000000011
 20
175.50494595385859
 30
0.0
  0
VERTEX
  5
382
  8
DATA
  6
CONTINUOUS
 62
     7
 10
-9.7500000000000142
 20
175.50494595385859
 30
0.0
  0
VERTEX
  5
383
  8
DATA
  6
CONTINUOUS
 62
     7
 10
-9.7500000000000142
 20
175.00494595385859
 30
0.0
  0
VERTEX
  5
384
  8
DATA
  6
CONTINUOUS
 62
     7
 10
-19.750000000000011
 20
175.00494595385859
 30
0.0
  0
SEQEND
  5
385
  8
DATA
  6
CONTINUOUS
 62
     7
  0
POLYLINE
  5
174
  8
DATA
  6
CONTINUOUS
 62
     7
 66
     1
 10
0.0
 20
0.0
 30
0.0
 70
     1
  0
VERTEX
  5
386
  8
DATA
  6
CONTINUOUS
 62
     7
 10
-47.49714622680672
 20
162.06557211798969
 30
0.0
  0
VERTEX
  5
387
  8
DATA
  6
CONTINUOUS
 62
     7
 10
-44.708758547680723
 20
162.81271834479639
 30
0.0
  0
VERTEX
  5
388
  8
DATA
  6
CONTINUOUS
 62
     7
 10
-43.961612320874004
 20
165.6011060239224
 30
0.0
  0
VERTEX
  5
389
  8
DATA
  6
CONTINUOUS
 62
     7
 10
-46.002853773193287
 20
167.6423474762417
 30
0.0
  0
VERTEX
  5
38A
  8
DATA
  6
CONTINUOUS
 62
     7
 10
-48.791241452319319
 20
166.89520124943499
 30
0.0
  0
VERTEX
  5
38B
  8
DATA
  6
CONTINUOUS
 62
     7
 10
-49.538387679126082
 20
164.10681357030899
 30
0.0
  0
SEQEND
  5
38C
  8
DATA
  6
CONTINUOUS
 62
     7
  0
CIRCLE
  5
17D
  8
DATA
  6
CONTINUOUS
 62
     7
 10
-46.750000000000021
 20
164.85395979711569
 30
0.0
 40
1.2750000000000341
  0
LINE
  5
17E
  8
DATA
  6
CONTINUOUS
 62
     7
 10
-38.900000000000048
 20
157.79110912835151
 30
0.0
 11
-54.59999999999998
 21
157.79110912835151
 31
0.0
  0
LINE
  5
17F
  8
DATA
  6
CONTINUOUS
 62
     7
 10
-38.900000000000048
 20
157.79110912835151
 30
0.0
 11
-38.900000000000048
 21
153.49110912835141
 31
0.0
  0
LINE
  5
180
  8
DATA
  6
CONTINUOUS
 62
     7
 10
-54.59999999999998
 20
157.79110912835151
 30
0.0
 11
-54.59999999999998
 21
153.49110912835141
 31
0.0
  0
LINE
  5
181
  8
DATA
  6
CONTINUOUS
 62
     7
 10
-38.900000000000048
 20
153.49110912835141
 30
0.0
 11
-41.500000000000007
 21
151.79110912835131
 31
0.0
  0
LINE
  5
182
  8
DATA
  6
CONTINUOUS
 62
     7
 10
-54.59999999999998
 20
153.49110912835141
 30
0.0
 11
-52.000000000000021
 21
151.79110912835131
 31
0.0
  0
LINE
  5
183
  8
DATA
  6
CONTINUOUS
 62
     7
 10
-41.500000000000007
 20
151.79110912835131
 30
0.0
 11
-52.000000000000021
 21
151.79110912835131
 31
0.0
  0
POLYLINE
  5
184
  8
DATA
  6
CONTINUOUS
 62
     7
 66
     1
 10
0.0
 20
0.0
 30
0.0
 70
     1
  0
VERTEX
  5
38D
  8
DATA
  6
CONTINUOUS
 62
     7
 10
-51.750000000000021
 20
155.50494595385859
 30
0.0
  0
VERTEX
  5
38E
  8
DATA
  6
CONTINUOUS
 62
     7
 10
-41.750000000000007
 20
155.50494595385859
 30
0.0
  0
VERTEX
  5
38F
  8
DATA
  6
CONTINUOUS
 62
     7
 10
-41.750000000000007
 20
155.00494595385859
 30
0.0
  0
VERTEX
  5
390
  8
DATA
  6
CONTINUOUS
 62
     7
 10
-51.750000000000021
 20
155.00494595385859
 30
0.0
  0
SEQEND
  5
391
  8
DATA
  6
CONTINUOUS
 62
     7
  0
POLYLINE
  5
18B
  8
DATA
  6
CONTINUOUS
 62
     7
 66
     1
 10
0.0
 20
0.0
 30
0.0
 70
     1
  0
VERTEX
  5
392
  8
DATA
  6
CONTINUOUS
 62
     7
 10
-14.0028537731933
 20
162.06557211798969
 30
0.0
  0
VERTEX
  5
393
  8
DATA
  6
CONTINUOUS
 62
     7
 10
-16.791241452319309
 20
162.81271834479639
 30
0.0
  0
VERTEX
  5
394
  8
DATA
  6
CONTINUOUS
 62
     7
 10
-17.538387679126021
 20
165.6011060239224
 30
0.0
  0
VERTEX
  5
395
  8
DATA
  6
CONTINUOUS
 62
     7
 10
-15.49714622680672
 20
167.6423474762417
 30
0.0
  0
VERTEX
  5
396
  8
DATA
  6
CONTINUOUS
 62
     7
 10
-12.708758547680709
 20
166.89520124943499
 30
0.0
  0
VERTEX
  5
397
  8
DATA
  6
CONTINUOUS
 62
     7
 10
-11.96161232087395
 20
164.10681357030899
 30
0.0
  0
SEQEND
  5
398
  8
DATA
  6
CONTINUOUS
 62
     7
  0
CIRCLE
  5
194
  8
DATA
  6
CONTINUOUS
 62
     7
 10
-14.750000000000011
 20
164.85395979711569
 30
0.0
 40
1.2750000000000341
  0
LINE
  5
195
  8
DATA
  6
CONTINUOUS
 62
     7
 10
-22.59999999999998
 20
157.79110912835151
 30
0.0
 11
-6.9000000000000483
 21
157.79110912835151
 31
0.0
  0
LINE
  5
196
  8
DATA
  6
CONTINUOUS
 62
     7
 10
-22.59999999999998
 20
157.79110912835151
 30
0.0
 11
-22.59999999999998
 21
153.49110912835141
 31
0.0
  0
LINE
  5
197
  8
DATA
  6
CONTINUOUS
 62
     7
 10
-6.9000000000000483
 20
157.79110912835151
 30
0.0
 11
-6.9000000000000483
 21
153.49110912835141
 31
0.0
  0
LINE
  5
198
  8
DATA
  6
CONTINUOUS
 62
     7
 10
-22.59999999999998
 20
153.49110912835141
 30
0.0
 11
-20.000000000000011
 21
151.79110912835131
 31
0.0
  0
LINE
  5
199
  8
DATA
  6
CONTINUOUS
 62
     7
 10
-6.9000000000000483
 20
153.49110912835141
 30
0.0
 11
-9.5000000000000142
 21
151.79110912835131
 31
0.0
  0
LINE
  5
19A
  8
DATA
  6
CONTINUOUS
 62
     7
 10
-20.000000000000011
 20
151.79110912835131
 30
0.0
 11
-9.5000000000000142
 21
151.79110912835131
 31
0.0
  0
POLYLINE
  5
19B
  8
DATA
  6
CONTINUOUS
 62
     7
 66
     1
 10
0.0
 20
0.0
 30
0.0
 70
     1
  0
VERTEX
  5
399
  8
DATA
  6
CONTINUOUS
 62
     7
 10
-19.750000000000011
 20
155.50494595385859
 30
0.0
  0
VERTEX
  5
39A
  8
DATA
  6
CONTINUOUS
 62
     7
 10
-9.7500000000000142
 20
155.50494595385859
 30
0.0
  0
VERTEX
  5
39B
  8
DATA
  6
CONTINUOUS
 62
     7
 10
-9.7500000000000142
 20
155.00494595385859
 30
0.0
  0
VERTEX
  5
39C
  8
DATA
  6
CONTINUOUS
 62
     7
 10
-19.750000000000011
 20
155.00494595385859
 30
0.0
  0
SEQEND
  5
39D
  8
DATA
  6
CONTINUOUS
 62
     7
  0
POLYLINE
  5
1A2
  8
DATA
  6
CONTINUOUS
 62
     7
 66
     1
 10
0.0
 20
0.0
 30
0.0
 70
     1
  0
VERTEX
  5
39E
  8
DATA
  6
CONTINUOUS
 62
     7
 10
-47.49714622680672
 20
142.06557211798969
 30
0.0
  0
VERTEX
  5
39F
  8
DATA
  6
CONTINUOUS
 62
     7
 10
-44.708758547680723
 20
142.81271834479639
 30
0.0
  0
VERTEX
  5
3A0
  8
DATA
  6
CONTINUOUS
 62
     7
 10
-43.961612320874004
 20
145.6011060239224
 30
0.0
  0
VERTEX
  5
3A1
  8
DATA
  6
CONTINUOUS
 62
     7
 10
-46.002853773193287
 20
147.6423474762417
 30
0.0
  0
VERTEX
  5
3A2
  8
DATA
  6
CONTINUOUS
 62
     7
 10
-48.791241452319319
 20
146.89520124943499
 30
0.0
  0
VERTEX
  5
3A3
  8
DATA
  6
CONTINUOUS
 62
     7
 10
-49.538387679126082
 20
144.10681357030899
 30
0.0
  0
SEQEND
  5
3A4
  8
DATA
  6
CONTINUOUS
 62
     7
  0
CIRCLE
  5
1AB
  8
DATA
  6
CONTINUOUS
 62
     7
 10
-46.750000000000021
 20
144.85395979711569
 30
0.0
 40
1.2750000000000341
  0
LINE
  5
1AC
  8
DATA
  6
CONTINUOUS
 62
     7
 10
-38.900000000000048
 20
137.79110912835151
 30
0.0
 11
-54.59999999999998
 21
137.79110912835151
 31
0.0
  0
LINE
  5
1AD
  8
DATA
  6
CONTINUOUS
 62
     7
 10
-38.900000000000048
 20
137.79110912835151
 30
0.0
 11
-38.900000000000048
 21
133.4911091283513
 31
0.0
  0
LINE
  5
1AE
  8
DATA
  6
CONTINUOUS
 62
     7
 10
-54.59999999999998
 20
137.79110912835151
 30
0.0
 11
-54.59999999999998
 21
133.4911091283513
 31
0.0
  0
LINE
  5
1AF
  8
DATA
  6
CONTINUOUS
 62
     7
 10
-38.900000000000048
 20
133.4911091283513
 30
0.0
 11
-41.500000000000007
 21
131.79110912835131
 31
0.0
  0
LINE
  5
1B0
  8
DATA
  6
CONTINUOUS
 62
     7
 10
-54.59999999999998
 20
133.4911091283513
 30
0.0
 11
-52.000000000000021
 21
131.79110912835131
 31
0.0
  0
LINE
  5
1B1
  8
DATA
  6
CONTINUOUS
 62
     7
 10
-41.500000000000007
 20
131.79110912835131
 30
0.0
 11
-52.000000000000021
 21
131.79110912835131
 31
0.0
  0
POLYLINE
  5
1B2
  8
DATA
  6
CONTINUOUS
 62
     7
 66
     1
 10
0.0
 20
0.0
 30
0.0
 70
     1
  0
VERTEX
  5
3A5
  8
DATA
  6
CONTINUOUS
 62
     7
 10
-51.750000000000021
 20
135.50494595385859
 30
0.0
  0
VERTEX
  5
3A6
  8
DATA
  6
CONTINUOUS
 62
     7
 10
-41.750000000000007
 20
135.50494595385859
 30
0.0
  0
VERTEX
  5
3A7
  8
DATA
  6
CONTINUOUS
 62
     7
 10
-41.750000000000007
 20
135.00494595385859
 30
0.0
  0
VERTEX
  5
3A8
  8
DATA
  6
CONTINUOUS
 62
     7
 10
-51.750000000000021
 20
135.00494595385859
 30
0.0
  0
SEQEND
  5
3A9
  8
DATA
  6
CONTINUOUS
 62
     7
  0
TEXT
  5
1B9
  8
DATA
 62
     7
 10
-61.806328932774584
 20
173.56850750583399
 30
0.0
 40
3.2576822916666659
  1
1
 41
0.7
 11
-61.806328932774584
 21
176.82618979750069
 31
0.0
 73
     3
  0
TEXT
  5
1BA
  8
DATA
 62
     7
 10
-0.8400457563023879
 20
173.56850750583399
 30
0.0
 40
3.2576822916666659
  1
3
 41
0.7
 11
-0.8400457563023877
 21
176.82618979750069
 31
0.0
 73
     3
  0
TEXT
  5
1BB
  8
DATA
 62
     7
 10
-61.806328932774584
 20
153.56850750583399
 30
0.0
 40
3.2576822916666659
  1
2
 41
0.7
 11
-61.806328932774584
 21
156.82618979750069
 31
0.0
 73
     3
  0
TEXT
  5
1BC
  8
DATA
 62
     7
 10
-0.8400457563023879
 20
153.56850750583399
 30
0.0
 40
3.2576822916666659
  1
4
 41
0.7
 11
-0.8400457563023877
 21
156.82618979750069
 31
0.0
 73
     3
  0
TEXT
  5
1BD
  8
DATA
 62
     7
 10
-32.399999999999991
 20
143.15933333333331
 30
0.0
 40
3.2576822916666659
  1
In
 41
0.7
 11
-32.399999999999991
 21
146.417015625
 31
0.0
 73
     3
  0
TEXT
  5
1BE
  8
DATA
 62
     7
 10
-49.747654472190767
 20
124.3700741874764
 30
0.0
 40
3.2576822916666659
  1
Out
 41
0.7
 11
-49.747654472190767
 21
127.6277564791431
 31
0.0
 73
     3
  0
LINE
  5
1BF
  8
DATA
  6
CONTINUOUS
 62
     7
 10
-68.750000000000014
 20
249.99999999983879
 30
0.0
 11
-68.750000000000014
 21
226.99999999983851
 31
0.0
  0
LINE
  5
1C0
  8
DATA
  6
CONTINUOUS
 62
     7
 10
7.2499999999999867
 20
249.99999999983879
 30
0.0
 11
-68.750000000000014
 21
249.99999999983879
 31
0.0
  0
LINE
  5
1C1
  8
DATA
  6
CONTINUOUS
 62
     7
 10
7.2499999999999867
 20
226.99999999983851
 30
0.0
 11
7.2499999999999867
 21
249.99999999983879
 31
0.0
  0
LINE
  5
1C2
  8
DATA
  6
CONTINUOUS
 62
     7
 10
-66.750000000000014
 20
224.99999999983851
 30
0.0
 11
5.2499999999999849
 21
224.99999999983851
 31
0.0
  0
LINE
  5
1C3
  8
DATA
  6
CONTINUOUS
 62
     7
 10
7.2499999999999867
 20
248.39999999983871
 30
0.0
 11
-68.750000000000014
 21
248.39999999983871
 31
0.0
  0
ARC
  5
1C4
  8
DATA
  6
CONTINUOUS
 62
     7
 10
-66.750000000000014
 20
226.99999999983851
 30
0.0
 40
2.0
 50
180.0
 51
270.0
  0
ARC
  5
1C5
  8
DATA
  6
CONTINUOUS
 62
     7
 10
5.2499999999999849
 20
226.99999999983851
 30
0.0
 40
2.0
 50
270.0
 51
0.0
  0
LINE
  5
1C6
  8
DATA
  6
CONTINUOUS
 62
     7
 10
-57.957027019253893
 20
-101.75
 30
0.0
 11
-53.280489838817921
 21
-101.75
 31
0.0
  0
LINE
  5
1C7
  8
DATA
  6
CONTINUOUS
 62
     7
 10
-50.916238486476018
 20
-101.75
 30
0.0
 11
-35.30449521884784
 21
-101.75
 31
0.0
  0
LINE
  5
1C8
  8
DATA
  6
CONTINUOUS
 62
     7
 10
-32.957027019253893
 20
-101.75
 30
0.0
 11
-28.28048983881801
 21
-101.75
 31
0.0
  0
LINE
  5
1C9
  8
DATA
  6
CONTINUOUS
 62
     7
 10
-28.28048983881801
 20
-101.75
 30
0.0
 11
-28.28048983881801
 21
-106.25
 31
0.0
  0
LINE
  5
1CA
  8
DATA
  6
CONTINUOUS
 62
     7
 10
-35.30449521884784
 20
-101.75
 30
0.0
 11
-35.30449521884784
 21
-106.25
 31
0.0
  0
LINE
  5
1CB
  8
DATA
  6
CONTINUOUS
 62
     7
 10
-53.280489838817921
 20
-101.75
 30
0.0
 11
-53.280489838817921
 21
-106.25
 31
0.0
  0
LINE
  5
1CC
  8
DATA
  6
CONTINUOUS
 62
     7
 10
-32.957027019253893
 20
-101.75
 30
0.0
 11
-32.957027019253893
 21
-106.25
 31
0.0
  0
LINE
  5
1CD
  8
DATA
  6
CONTINUOUS
 62
     7
 10
-57.957027019253893
 20
-101.75
 30
0.0
 11
-57.957027019253893
 21
-106.25
 31
0.0
  0
LINE
  5
1CE
  8
DATA
  6
CONTINUOUS
 62
     7
 10
-50.916238486476018
 20
-101.75
 30
0.0
 11
-50.916238486476018
 21
-106.25
 31
0.0
  0
ARC
  5
1CF
  8
DATA
  6
CONTINUOUS
 62
     7
 10
-3.75
 20
-106.1451734261381
 30
0.0
 40
1.399999999999991
 50
355.7058952698622
 51
184.2941047301376
  0
ARC
  5
1D0
  8
DATA
  6
CONTINUOUS
 62
     7
 10
-25.750000000000011
 20
-106.14417327004711
 30
0.0
 40
1.400000000000017
 50
355.66484699151312
 51
184.3351530084868
  0
LINE
  5
1D1
  8
DATA
  6
CONTINUOUS
 62
     7
 10
-49.538387679126082
 20
-101.25
 30
0.0
 11
-43.961612320874004
 21
-101.25
 31
0.0
  0
LINE
  5
1D2
  8
DATA
  6
CONTINUOUS
 62
     7
 10
-17.538387679126021
 20
-101.25
 30
0.0
 11
-11.96161232087395
 21
-101.25
 31
0.0
  0
LINE
  5
1D3
  8
DATA
  6
CONTINUOUS
 62
     7
 10
-49.538387679126082
 20
-101.25
 30
0.0
 11
-49.538387679126082
 21
-101.75
 31
0.0
  0
LINE
  5
1D4
  8
DATA
  6
CONTINUOUS
 62
     7
 10
-43.961612320874004
 20
-101.25
 30
0.0
 11
-43.961612320874004
 21
-101.75
 31
0.0
  0
LINE
  5
1D5
  8
DATA
  6
CONTINUOUS
 62
     7
 10
-17.538387679126021
 20
-101.25
 30
0.0
 11
-17.538387679126021
 21
-106.25
 31
0.0
  0
LINE
  5
1D6
  8
DATA
  6
CONTINUOUS
 62
     7
 10
-11.96161232087395
 20
-101.25
 30
0.0
 11
-11.96161232087395
 21
-106.25
 31
0.0
  0
LINE
  5
1D7
  8
DATA
  6
CONTINUOUS
 62
     7
 10
-49.538387679126082
 20
219.99999999983851
 30
0.0
 11
-43.961612320874004
 21
219.99999999983851
 31
0.0
  0
LINE
  5
1D8
  8
DATA
  6
CONTINUOUS
 62
     7
 10
-17.538387679126021
 20
219.99999999983851
 30
0.0
 11
-11.96161232087395
 21
219.99999999983851
 31
0.0
  0
LINE
  5
1D9
  8
DATA
  6
CONTINUOUS
 62
     7
 10
-49.538387679126082
 20
219.99999999983851
 30
0.0
 11
-49.538387679126082
 21
224.99999999983851
 31
0.0
  0
LINE
  5
1DA
  8
DATA
  6
CONTINUOUS
 62
     7
 10
-43.961612320874004
 20
219.99999999983851
 30
0.0
 11
-43.961612320874004
 21
224.99999999983851
 31
0.0
  0
LINE
  5
1DB
  8
DATA
  6
CONTINUOUS
 62
     7
 10
-17.538387679126021
 20
219.99999999983851
 30
0.0
 11
-17.538387679126021
 21
224.99999999983851
 31
0.0
  0
LINE
  5
1DC
  8
DATA
  6
CONTINUOUS
 62
     7
 10
-11.96161232087395
 20
219.99999999983851
 30
0.0
 11
-11.96161232087395
 21
224.99999999983851
 31
0.0
  0
LINE
  5
1DD
  8
DATA
  6
CONTINUOUS
 62
     7
 10
62.5
 20
-131.25
 30
0.0
 11
62.5
 21
-129.64999999999989
 31
0.0
  0
LINE
  5
1DE
  8
DATA
  6
CONTINUOUS
 62
     7
 10
325.5
 20
-131.25
 30
0.0
 11
325.5
 21
-129.64999999999989
 31
0.0
  0
LINE
  5
1DF
  8
DATA
  6
CONTINUOUS
 62
     7
 10
62.5
 20
-129.64999999999989
 30
0.0
 11
76.5
 21
-129.64999999999989
 31
0.0
  0
LINE
  5
1E0
  8
DATA
  6
CONTINUOUS
 62
     7
 10
311.5
 20
-129.64999999999989
 30
0.0
 11
325.5
 21
-129.64999999999989
 31
0.0
  0
LINE
  5
1E1
  8
DATA
  6
CONTINUOUS
 62
     7
 10
76.5
 20
-106.25
 30
0.0
 11
311.5
 21
-106.25
 31
0.0
  0
LINE
  5
1E2
  8
DATA
  6
CONTINUOUS
 62
     7
 10
76.5
 20
-129.64999999999989
 30
0.0
 11
76.5
 21
-106.25
 31
0.0
  0
LINE
  5
1E3
  8
DATA
  6
CONTINUOUS
 62
     7
 10
311.5
 20
-129.64999999999989
 30
0.0
 11
311.5
 21
-106.25
 31
0.0
  0
LINE
  5
1E4
  8
DATA
  6
CONTINUOUS
 62
     7
 10
78.09999999999998
 20
-131.25
 30
0.0
 11
78.09999999999998
 21
-106.25
 31
0.0
  0
LINE
  5
1E5
  8
DATA
  6
CONTINUOUS
 62
     7
 10
309.89999999999998
 20
-131.25
 30
0.0
 11
309.89999999999998
 21
-106.25
 31
0.0
  0
CIRCLE
  5
1E6
  8
DATA
  6
CONTINUOUS
 62
     7
 10
122.5
 20
-124.25
 30
0.0
 40
2.7500000000000022
  0
LINE
  5
1E7
  8
DATA
  6
CONTINUOUS
 62
     7
 10
123.8
 20
-125.5500000000001
 30
0.0
 11
121.1999999999999
 21
-122.9499999999999
 31
0.0
  0
LINE
  5
1E8
  8
DATA
  6
CONTINUOUS
 62
     7
 10
123.8
 20
-122.9499999999999
 30
0.0
 11
121.1999999999999
 21
-125.5500000000001
 31
0.0
  0
CIRCLE
  5
1E9
  8
DATA
  6
CONTINUOUS
 62
     7
 10
265.5
 20
-124.25
 30
0.0
 40
2.7500000000000022
  0
LINE
  5
1EA
  8
DATA
  6
CONTINUOUS
 62
     7
 10
264.19999999999999
 20
-125.5500000000001
 30
0.0
 11
266.80000000000001
 21
-122.9499999999999
 31
0.0
  0
LINE
  5
1EB
  8
DATA
  6
CONTINUOUS
 62
     7
 10
264.19999999999999
 20
-122.9499999999999
 30
0.0
 11
266.80000000000013
 21
-125.5500000000001
 31
0.0
  0
LINE
  5
1EC
  8
DATA
  6
CONTINUOUS
 62
     7
 10
201.80000000000001
 20
-124.6500000000029
 30
0.0
 11
201.80000000000001
 21
-112.64999999999699
 31
0.0
  0
LINE
  5
1ED
  8
DATA
  6
CONTINUOUS
 62
     7
 10
200.0
 20
-124.6500000000029
 30
0.0
 11
200.0
 21
-112.64999999999699
 31
0.0
  0
ARC
  5
1EE
  8
DATA
  6
CONTINUOUS
 62
     7
 10
200.90000000000001
 20
-112.9417475435739
 30
0.0
 40
0.9461060348510059
 50
17.960824461479479
 51
162.03917553851969
  0
ARC
  5
1EF
  8
DATA
  6
CONTINUOUS
 62
     7
 10
200.90000000000001
 20
-124.358252456426
 30
0.0
 40
0.9461060348509655
 50
197.9608244614802
 51
342.03917553852062
  0
LINE
  5
1F0
  8
DATA
  6
CONTINUOUS
 62
     7
 10
205.80000000000001
 20
-124.6500000000029
 30
0.0
 11
205.80000000000001
 21
-112.64999999999699
 31
0.0
  0
LINE
  5
1F1
  8
DATA
  6
CONTINUOUS
 62
     7
 10
204.0
 20
-124.6500000000029
 30
0.0
 11
204.0
 21
-112.64999999999699
 31
0.0
  0
ARC
  5
1F2
  8
DATA
  6
CONTINUOUS
 62
     7
 10
204.90000000000001
 20
-112.9417475435739
 30
0.0
 40
0.9461060348510059
 50
17.960824461479479
 51
162.03917553851969
  0
ARC
  5
1F3
  8
DATA
  6
CONTINUOUS
 62
     7
 10
204.90000000000001
 20
-124.358252456426
 30
0.0
 40
0.9461060348509655
 50
197.9608244614802
 51
342.03917553852062
  0
LINE
  5
1F4
  8
DATA
  6
CONTINUOUS
 62
     7
 10
209.80000000000001
 20
-124.6500000000029
 30
0.0
 11
209.80000000000001
 21
-112.64999999999699
 31
0.0
  0
LINE
  5
1F5
  8
DATA
  6
CONTINUOUS
 62
     7
 10
208.0
 20
-124.6500000000029
 30
0.0
 11
208.0
 21
-112.64999999999699
 31
0.0
  0
ARC
  5
1F6
  8
DATA
  6
CONTINUOUS
 62
     7
 10
208.90000000000001
 20
-112.9417475435739
 30
0.0
 40
0.9461060348510059
 50
17.960824461479479
 51
162.03917553851969
  0
ARC
  5
1F7
  8
DATA
  6
CONTINUOUS
 62
     7
 10
208.90000000000001
 20
-124.358252456426
 30
0.0
 40
0.9461060348509655
 50
197.9608244614802
 51
342.03917553852062
  0
LINE
  5
1F8
  8
DATA
  6
CONTINUOUS
 62
     7
 10
213.80000000000001
 20
-124.6500000000029
 30
0.0
 11
213.80000000000001
 21
-112.64999999999699
 31
0.0
  0
LINE
  5
1F9
  8
DATA
  6
CONTINUOUS
 62
     7
 10
212.0
 20
-124.6500000000029
 30
0.0
 11
212.0
 21
-112.64999999999699
 31
0.0
  0
ARC
  5
1FA
  8
DATA
  6
CONTINUOUS
 62
     7
 10
212.90000000000001
 20
-112.9417475435739
 30
0.0
 40
0.9461060348510059
 50
17.960824461479479
 51
162.03917553851969
  0
ARC
  5
1FB
  8
DATA
  6
CONTINUOUS
 62
     7
 10
212.90000000000001
 20
-124.358252456426
 30
0.0
 40
0.9461060348509655
 50
197.9608244614802
 51
342.03917553852062
  0
LINE
  5
1FC
  8
DATA
  6
CONTINUOUS
 62
     7
 10
217.80000000000001
 20
-124.6500000000029
 30
0.0
 11
217.80000000000001
 21
-112.64999999999699
 31
0.0
  0
LINE
  5
1FD
  8
DATA
  6
CONTINUOUS
 62
     7
 10
216.0
 20
-124.6500000000029
 30
0.0
 11
216.0
 21
-112.64999999999699
 31
0.0
  0
ARC
  5
1FE
  8
DATA
  6
CONTINUOUS
 62
     7
 10
216.90000000000001
 20
-112.9417475435739
 30
0.0
 40
0.9461060348510059
 50
17.960824461479479
 51
162.03917553851969
  0
ARC
  5
1FF
  8
DATA
  6
CONTINUOUS
 62
     7
 10
216.90000000000001
 20
-124.358252456426
 30
0.0
 40
0.9461060348509655
 50
197.9608244614802
 51
342.03917553852062
  0
LINE
  5
200
  8
DATA
  6
CONTINUOUS
 62
     7
 10
221.80000000000001
 20
-124.6500000000029
 30
0.0
 11
221.80000000000001
 21
-112.64999999999699
 31
0.0
  0
LINE
  5
201
  8
DATA
  6
CONTINUOUS
 62
     7
 10
220.0
 20
-124.6500000000029
 30
0.0
 11
220.0
 21
-112.64999999999699
 31
0.0
  0
ARC
  5
202
  8
DATA
  6
CONTINUOUS
 62
     7
 10
220.90000000000001
 20
-112.9417475435739
 30
0.0
 40
0.9461060348510059
 50
17.960824461479479
 51
162.03917553851969
  0
ARC
  5
203
  8
DATA
  6
CONTINUOUS
 62
     7
 10
220.90000000000001
 20
-124.358252456426
 30
0.0
 40
0.9461060348509655
 50
197.9608244614802
 51
342.03917553852062
  0
LINE
  5
204
  8
DATA
  6
CONTINUOUS
 62
     7
 10
225.80000000000001
 20
-124.6500000000029
 30
0.0
 11
225.80000000000001
 21
-112.64999999999699
 31
0.0
  0
LINE
  5
205
  8
DATA
  6
CONTINUOUS
 62
     7
 10
224.0
 20
-124.6500000000029
 30
0.0
 11
224.0
 21
-112.64999999999699
 31
0.0
  0
ARC
  5
206
  8
DATA
  6
CONTINUOUS
 62
     7
 10
224.90000000000001
 20
-112.9417475435739
 30
0.0
 40
0.9461060348510059
 50
17.960824461479479
 51
162.03917553851969
  0
ARC
  5
207
  8
DATA
  6
CONTINUOUS
 62
     7
 10
224.90000000000001
 20
-124.358252456426
 30
0.0
 40
0.9461060348509655
 50
197.9608244614802
 51
342.03917553852062
  0
LINE
  5
208
  8
DATA
  6
CONTINUOUS
 62
     7
 10
229.80000000000001
 20
-124.6500000000029
 30
0.0
 11
229.80000000000001
 21
-112.64999999999699
 31
0.0
  0
LINE
  5
209
  8
DATA
  6
CONTINUOUS
 62
     7
 10
228.0
 20
-124.6500000000029
 30
0.0
 11
228.0
 21
-112.64999999999699
 31
0.0
  0
ARC
  5
20A
  8
DATA
  6
CONTINUOUS
 62
     7
 10
228.90000000000001
 20
-112.9417475435739
 30
0.0
 40
0.9461060348510196
 50
17.960824461479209
 51
162.03917553851969
  0
ARC
  5
20B
  8
DATA
  6
CONTINUOUS
 62
     7
 10
228.90000000000001
 20
-124.358252456426
 30
0.0
 40
0.9461060348509655
 50
197.9608244614802
 51
342.03917553852079
  0
LINE
  5
20C
  8
DATA
  6
CONTINUOUS
 62
     7
 10
233.80000000000001
 20
-124.6500000000029
 30
0.0
 11
233.80000000000001
 21
-112.64999999999699
 31
0.0
  0
LINE
  5
20D
  8
DATA
  6
CONTINUOUS
 62
     7
 10
232.0
 20
-124.6500000000029
 30
0.0
 11
232.0
 21
-112.64999999999699
 31
0.0
  0
ARC
  5
20E
  8
DATA
  6
CONTINUOUS
 62
     7
 10
232.90000000000001
 20
-112.9417475435739
 30
0.0
 40
0.9461060348510196
 50
17.960824461479209
 51
162.03917553851969
  0
ARC
  5
20F
  8
DATA
  6
CONTINUOUS
 62
     7
 10
232.90000000000001
 20
-124.358252456426
 30
0.0
 40
0.9461060348509655
 50
197.9608244614802
 51
342.03917553852079
  0
LINE
  5
210
  8
DATA
  6
CONTINUOUS
 62
     7
 10
237.80000000000001
 20
-124.6500000000029
 30
0.0
 11
237.80000000000001
 21
-112.64999999999699
 31
0.0
  0
LINE
  5
211
  8
DATA
  6
CONTINUOUS
 62
     7
 10
236.0
 20
-124.6500000000029
 30
0.0
 11
236.0
 21
-112.64999999999699
 31
0.0
  0
ARC
  5
212
  8
DATA
  6
CONTINUOUS
 62
     7
 10
236.90000000000001
 20
-112.9417475435739
 30
0.0
 40
0.9461060348510196
 50
17.960824461479209
 51
162.03917553851969
  0
ARC
  5
213
  8
DATA
  6
CONTINUOUS
 62
     7
 10
236.90000000000001
 20
-124.358252456426
 30
0.0
 40
0.9461060348509655
 50
197.9608244614802
 51
342.03917553852079
  0
LINE
  5
214
  8
DATA
  6
CONTINUOUS
 62
     7
 10
241.80000000000001
 20
-124.6500000000029
 30
0.0
 11
241.80000000000001
 21
-112.64999999999699
 31
0.0
  0
LINE
  5
215
  8
DATA
  6
CONTINUOUS
 62
     7
 10
240.0
 20
-124.6500000000029
 30
0.0
 11
240.0
 21
-112.64999999999699
 31
0.0
  0
ARC
  5
216
  8
DATA
  6
CONTINUOUS
 62
     7
 10
240.90000000000001
 20
-112.9417475435739
 30
0.0
 40
0.9461060348510196
 50
17.960824461479209
 51
162.03917553851969
  0
ARC
  5
217
  8
DATA
  6
CONTINUOUS
 62
     7
 10
240.90000000000001
 20
-124.358252456426
 30
0.0
 40
0.9461060348509655
 50
197.9608244614802
 51
342.03917553852079
  0
LINE
  5
218
  8
DATA
  6
CONTINUOUS
 62
     7
 10
245.80000000000001
 20
-124.6500000000029
 30
0.0
 11
245.80000000000001
 21
-112.64999999999699
 31
0.0
  0
LINE
  5
219
  8
DATA
  6
CONTINUOUS
 62
     7
 10
244.0
 20
-124.6500000000029
 30
0.0
 11
244.0
 21
-112.64999999999699
 31
0.0
  0
ARC
  5
21A
  8
DATA
  6
CONTINUOUS
 62
     7
 10
244.90000000000001
 20
-112.9417475435739
 30
0.0
 40
0.9461060348510196
 50
17.960824461479209
 51
162.03917553851969
  0
ARC
  5
21B
  8
DATA
  6
CONTINUOUS
 62
     7
 10
244.90000000000001
 20
-124.358252456426
 30
0.0
 40
0.9461060348509655
 50
197.9608244614802
 51
342.03917553852079
  0
LINE
  5
21C
  8
DATA
  6
CONTINUOUS
 62
     7
 10
249.80000000000001
 20
-124.6500000000029
 30
0.0
 11
249.80000000000001
 21
-112.64999999999699
 31
0.0
  0
LINE
  5
21D
  8
DATA
  6
CONTINUOUS
 62
     7
 10
248.0
 20
-124.6500000000029
 30
0.0
 11
248.0
 21
-112.64999999999699
 31
0.0
  0
ARC
  5
21E
  8
DATA
  6
CONTINUOUS
 62
     7
 10
248.90000000000001
 20
-112.9417475435739
 30
0.0
 40
0.9461060348510196
 50
17.960824461479209
 51
162.03917553851969
  0
ARC
  5
21F
  8
DATA
  6
CONTINUOUS
 62
     7
 10
248.90000000000001
 20
-124.358252456426
 30
0.0
 40
0.9461060348509655
 50
197.9608244614802
 51
342.03917553852079
  0
LINE
  5
220
  8
DATA
  6
CONTINUOUS
 62
     7
 10
253.80000000000001
 20
-124.6500000000029
 30
0.0
 11
253.80000000000001
 21
-112.64999999999699
 31
0.0
  0
LINE
  5
221
  8
DATA
  6
CONTINUOUS
 62
     7
 10
252.0
 20
-124.6500000000029
 30
0.0
 11
252.0
 21
-112.64999999999699
 31
0.0
  0
ARC
  5
222
  8
DATA
  6
CONTINUOUS
 62
     7
 10
252.90000000000001
 20
-112.9417475435739
 30
0.0
 40
0.9461060348510196
 50
17.960824461479209
 51
162.03917553851969
  0
ARC
  5
223
  8
DATA
  6
CONTINUOUS
 62
     7
 10
252.90000000000001
 20
-124.358252456426
 30
0.0
 40
0.9461060348509655
 50
197.9608244614802
 51
342.03917553852079
  0
LINE
  5
224
  8
DATA
  6
CONTINUOUS
 62
     7
 10
257.80000000000001
 20
-124.6500000000029
 30
0.0
 11
257.80000000000001
 21
-112.64999999999699
 31
0.0
  0
LINE
  5
225
  8
DATA
  6
CONTINUOUS
 62
     7
 10
256.0
 20
-124.6500000000029
 30
0.0
 11
256.0
 21
-112.64999999999699
 31
0.0
  0
ARC
  5
226
  8
DATA
  6
CONTINUOUS
 62
     7
 10
256.89999999999998
 20
-112.9417475435739
 30
0.0
 40
0.9461060348510196
 50
17.960824461479209
 51
162.03917553851969
  0
ARC
  5
227
  8
DATA
  6
CONTINUOUS
 62
     7
 10
256.89999999999998
 20
-124.358252456426
 30
0.0
 40
0.9461060348509655
 50
197.9608244614802
 51
342.03917553852079
  0
LINE
  5
228
  8
DATA
  6
CONTINUOUS
 62
     7
 10
274.80000000000001
 20
-124.6500000000029
 30
0.0
 11
274.80000000000001
 21
-112.64999999999699
 31
0.0
  0
LINE
  5
229
  8
DATA
  6
CONTINUOUS
 62
     7
 10
273.0
 20
-124.6500000000029
 30
0.0
 11
273.0
 21
-112.64999999999699
 31
0.0
  0
ARC
  5
22A
  8
DATA
  6
CONTINUOUS
 62
     7
 10
273.89999999999998
 20
-112.9417475435739
 30
0.0
 40
0.9461060348510196
 50
17.960824461479209
 51
162.03917553851969
  0
ARC
  5
22B
  8
DATA
  6
CONTINUOUS
 62
     7
 10
273.89999999999998
 20
-124.358252456426
 30
0.0
 40
0.9461060348509655
 50
197.9608244614802
 51
342.03917553852079
  0
LINE
  5
22C
  8
DATA
  6
CONTINUOUS
 62
     7
 10
278.80000000000001
 20
-124.6500000000029
 30
0.0
 11
278.80000000000001
 21
-112.64999999999699
 31
0.0
  0
LINE
  5
22D
  8
DATA
  6
CONTINUOUS
 62
     7
 10
277.0
 20
-124.6500000000029
 30
0.0
 11
277.0
 21
-112.64999999999699
 31
0.0
  0
ARC
  5
22E
  8
DATA
  6
CONTINUOUS
 62
     7
 10
277.89999999999998
 20
-112.9417475435739
 30
0.0
 40
0.9461060348510196
 50
17.960824461479209
 51
162.03917553851969
  0
ARC
  5
22F
  8
DATA
  6
CONTINUOUS
 62
     7
 10
277.89999999999998
 20
-124.358252456426
 30
0.0
 40
0.9461060348509655
 50
197.9608244614802
 51
342.03917553852079
  0
LINE
  5
230
  8
DATA
  6
CONTINUOUS
 62
     7
 10
282.80000000000001
 20
-124.6500000000029
 30
0.0
 11
282.80000000000001
 21
-112.64999999999699
 31
0.0
  0
LINE
  5
231
  8
DATA
  6
CONTINUOUS
 62
     7
 10
281.0
 20
-124.6500000000029
 30
0.0
 11
281.0
 21
-112.64999999999699
 31
0.0
  0
ARC
  5
232
  8
DATA
  6
CONTINUOUS
 62
     7
 10
281.89999999999998
 20
-112.9417475435739
 30
0.0
 40
0.9461060348510196
 50
17.960824461479209
 51
162.03917553851969
  0
ARC
  5
233
  8
DATA
  6
CONTINUOUS
 62
     7
 10
281.89999999999998
 20
-124.358252456426
 30
0.0
 40
0.9461060348509655
 50
197.9608244614802
 51
342.03917553852079
  0
LINE
  5
234
  8
DATA
  6
CONTINUOUS
 62
     7
 10
286.80000000000001
 20
-124.6500000000029
 30
0.0
 11
286.80000000000001
 21
-112.64999999999699
 31
0.0
  0
LINE
  5
235
  8
DATA
  6
CONTINUOUS
 62
     7
 10
285.0
 20
-124.6500000000029
 30
0.0
 11
285.0
 21
-112.64999999999699
 31
0.0
  0
ARC
  5
236
  8
DATA
  6
CONTINUOUS
 62
     7
 10
285.89999999999998
 20
-112.9417475435739
 30
0.0
 40
0.9461060348510196
 50
17.960824461479209
 51
162.03917553851969
  0
ARC
  5
237
  8
DATA
  6
CONTINUOUS
 62
     7
 10
285.89999999999998
 20
-124.358252456426
 30
0.0
 40
0.9461060348509655
 50
197.9608244614802
 51
342.03917553852079
  0
LINE
  5
238
  8
DATA
  6
CONTINUOUS
 62
     7
 10
290.80000000000001
 20
-124.6500000000029
 30
0.0
 11
290.80000000000001
 21
-112.64999999999699
 31
0.0
  0
LINE
  5
239
  8
DATA
  6
CONTINUOUS
 62
     7
 10
289.0
 20
-124.6500000000029
 30
0.0
 11
289.0
 21
-112.64999999999699
 31
0.0
  0
ARC
  5
23A
  8
DATA
  6
CONTINUOUS
 62
     7
 10
289.89999999999998
 20
-112.9417475435739
 30
0.0
 40
0.9461060348510196
 50
17.960824461479209
 51
162.03917553851969
  0
ARC
  5
23B
  8
DATA
  6
CONTINUOUS
 62
     7
 10
289.89999999999998
 20
-124.358252456426
 30
0.0
 40
0.9461060348509655
 50
197.9608244614802
 51
342.03917553852079
  0
LINE
  5
23C
  8
DATA
  6
CONTINUOUS
 62
     7
 10
294.80000000000001
 20
-124.6500000000029
 30
0.0
 11
294.80000000000001
 21
-112.64999999999699
 31
0.0
  0
LINE
  5
23D
  8
DATA
  6
CONTINUOUS
 62
     7
 10
293.0
 20
-124.6500000000029
 30
0.0
 11
293.0
 21
-112.64999999999699
 31
0.0
  0
ARC
  5
23E
  8
DATA
  6
CONTINUOUS
 62
     7
 10
293.89999999999998
 20
-112.9417475435739
 30
0.0
 40
0.9461060348510196
 50
17.960824461479209
 51
162.03917553851969
  0
ARC
  5
23F
  8
DATA
  6
CONTINUOUS
 62
     7
 10
293.89999999999998
 20
-124.358252456426
 30
0.0
 40
0.9461060348509655
 50
197.9608244614802
 51
342.03917553852079
  0
LINE
  5
240
  8
DATA
  6
CONTINUOUS
 62
     7
 10
298.80000000000001
 20
-124.6500000000029
 30
0.0
 11
298.80000000000001
 21
-112.64999999999699
 31
0.0
  0
LINE
  5
241
  8
DATA
  6
CONTINUOUS
 62
     7
 10
297.0
 20
-124.6500000000029
 30
0.0
 11
297.0
 21
-112.64999999999699
 31
0.0
  0
ARC
  5
242
  8
DATA
  6
CONTINUOUS
 62
     7
 10
297.89999999999998
 20
-112.9417475435739
 30
0.0
 40
0.9461060348510196
 50
17.960824461479209
 51
162.03917553851969
  0
ARC
  5
243
  8
DATA
  6
CONTINUOUS
 62
     7
 10
297.89999999999998
 20
-124.358252456426
 30
0.0
 40
0.9461060348509655
 50
197.9608244614802
 51
342.03917553852079
  0
LINE
  5
244
  8
DATA
  6
CONTINUOUS
 62
     7
 10
302.80000000000001
 20
-124.6500000000029
 30
0.0
 11
302.80000000000001
 21
-112.64999999999699
 31
0.0
  0
LINE
  5
245
  8
DATA
  6
CONTINUOUS
 62
     7
 10
301.0
 20
-124.6500000000029
 30
0.0
 11
301.0
 21
-112.64999999999699
 31
0.0
  0
ARC
  5
246
  8
DATA
  6
CONTINUOUS
 62
     7
 10
301.89999999999998
 20
-112.9417475435739
 30
0.0
 40
0.9461060348510196
 50
17.960824461479209
 51
162.03917553851969
  0
ARC
  5
247
  8
DATA
  6
CONTINUOUS
 62
     7
 10
301.89999999999998
 20
-124.358252456426
 30
0.0
 40
0.9461060348509655
 50
197.9608244614802
 51
342.03917553852079
  0
LINE
  5
248
  8
DATA
  6
CONTINUOUS
 62
     7
 10
186.19999999999999
 20
-124.6500000000029
 30
0.0
 11
186.19999999999999
 21
-112.64999999999699
 31
0.0
  0
LINE
  5
249
  8
DATA
  6
CONTINUOUS
 62
     7
 10
188.0
 20
-124.6500000000029
 30
0.0
 11
188.0
 21
-112.64999999999699
 31
0.0
  0
ARC
  5
24A
  8
DATA
  6
CONTINUOUS
 62
     7
 10
187.09999999999999
 20
-112.9417475435739
 30
0.0
 40
0.9461060348509655
 50
17.960824461480279
 51
162.03917553852079
  0
ARC
  5
24B
  8
DATA
  6
CONTINUOUS
 62
     7
 10
187.09999999999999
 20
-124.358252456426
 30
0.0
 40
0.9461060348510196
 50
197.96082446147909
 51
342.03917553851983
  0
LINE
  5
24C
  8
DATA
  6
CONTINUOUS
 62
     7
 10
182.19999999999999
 20
-124.6500000000029
 30
0.0
 11
182.19999999999999
 21
-112.64999999999699
 31
0.0
  0
LINE
  5
24D
  8
DATA
  6
CONTINUOUS
 62
     7
 10
184.0
 20
-124.6500000000029
 30
0.0
 11
184.0
 21
-112.64999999999699
 31
0.0
  0
ARC
  5
24E
  8
DATA
  6
CONTINUOUS
 62
     7
 10
183.09999999999999
 20
-112.9417475435739
 30
0.0
 40
0.9461060348509655
 50
17.960824461480279
 51
162.03917553852079
  0
ARC
  5
24F
  8
DATA
  6
CONTINUOUS
 62
     7
 10
183.09999999999999
 20
-124.358252456426
 30
0.0
 40
0.9461060348510196
 50
197.96082446147909
 51
342.03917553851983
  0
LINE
  5
250
  8
DATA
  6
CONTINUOUS
 62
     7
 10
178.19999999999999
 20
-124.6500000000029
 30
0.0
 11
178.19999999999999
 21
-112.64999999999699
 31
0.0
  0
LINE
  5
251
  8
DATA
  6
CONTINUOUS
 62
     7
 10
180.0
 20
-124.6500000000029
 30
0.0
 11
180.0
 21
-112.64999999999699
 31
0.0
  0
ARC
  5
252
  8
DATA
  6
CONTINUOUS
 62
     7
 10
179.09999999999999
 20
-112.9417475435739
 30
0.0
 40
0.9461060348509655
 50
17.960824461480279
 51
162.03917553852079
  0
ARC
  5
253
  8
DATA
  6
CONTINUOUS
 62
     7
 10
179.09999999999999
 20
-124.358252456426
 30
0.0
 40
0.9461060348510196
 50
197.96082446147909
 51
342.03917553851983
  0
LINE
  5
254
  8
DATA
  6
CONTINUOUS
 62
     7
 10
174.19999999999999
 20
-124.6500000000029
 30
0.0
 11
174.19999999999999
 21
-112.64999999999699
 31
0.0
  0
LINE
  5
255
  8
DATA
  6
CONTINUOUS
 62
     7
 10
176.0
 20
-124.6500000000029
 30
0.0
 11
176.0
 21
-112.64999999999699
 31
0.0
  0
ARC
  5
256
  8
DATA
  6
CONTINUOUS
 62
     7
 10
175.09999999999999
 20
-112.9417475435739
 30
0.0
 40
0.9461060348509655
 50
17.960824461480279
 51
162.03917553852079
  0
ARC
  5
257
  8
DATA
  6
CONTINUOUS
 62
     7
 10
175.09999999999999
 20
-124.358252456426
 30
0.0
 40
0.9461060348510196
 50
197.96082446147909
 51
342.03917553851983
  0
LINE
  5
258
  8
DATA
  6
CONTINUOUS
 62
     7
 10
170.19999999999999
 20
-124.6500000000029
 30
0.0
 11
170.19999999999999
 21
-112.64999999999699
 31
0.0
  0
LINE
  5
259
  8
DATA
  6
CONTINUOUS
 62
     7
 10
172.0
 20
-124.6500000000029
 30
0.0
 11
172.0
 21
-112.64999999999699
 31
0.0
  0
ARC
  5
25A
  8
DATA
  6
CONTINUOUS
 62
     7
 10
171.09999999999999
 20
-112.9417475435739
 30
0.0
 40
0.9461060348509655
 50
17.960824461480279
 51
162.03917553852079
  0
ARC
  5
25B
  8
DATA
  6
CONTINUOUS
 62
     7
 10
171.09999999999999
 20
-124.358252456426
 30
0.0
 40
0.9461060348510196
 50
197.96082446147909
 51
342.03917553851983
  0
LINE
  5
25C
  8
DATA
  6
CONTINUOUS
 62
     7
 10
166.19999999999999
 20
-124.6500000000029
 30
0.0
 11
166.19999999999999
 21
-112.64999999999699
 31
0.0
  0
LINE
  5
25D
  8
DATA
  6
CONTINUOUS
 62
     7
 10
168.0
 20
-124.6500000000029
 30
0.0
 11
168.0
 21
-112.64999999999699
 31
0.0
  0
ARC
  5
25E
  8
DATA
  6
CONTINUOUS
 62
     7
 10
167.09999999999999
 20
-112.9417475435739
 30
0.0
 40
0.9461060348509655
 50
17.960824461480279
 51
162.03917553852079
  0
ARC
  5
25F
  8
DATA
  6
CONTINUOUS
 62
     7
 10
167.09999999999999
 20
-124.358252456426
 30
0.0
 40
0.9461060348510196
 50
197.96082446147909
 51
342.03917553851983
  0
LINE
  5
260
  8
DATA
  6
CONTINUOUS
 62
     7
 10
162.19999999999999
 20
-124.6500000000029
 30
0.0
 11
162.19999999999999
 21
-112.64999999999699
 31
0.0
  0
LINE
  5
261
  8
DATA
  6
CONTINUOUS
 62
     7
 10
164.0
 20
-124.6500000000029
 30
0.0
 11
164.0
 21
-112.64999999999699
 31
0.0
  0
ARC
  5
262
  8
DATA
  6
CONTINUOUS
 62
     7
 10
163.09999999999999
 20
-112.9417475435739
 30
0.0
 40
0.9461060348509655
 50
17.960824461480279
 51
162.03917553852079
  0
ARC
  5
263
  8
DATA
  6
CONTINUOUS
 62
     7
 10
163.09999999999999
 20
-124.358252456426
 30
0.0
 40
0.9461060348510196
 50
197.96082446147909
 51
342.03917553851983
  0
LINE
  5
264
  8
DATA
  6
CONTINUOUS
 62
     7
 10
158.19999999999999
 20
-124.6500000000029
 30
0.0
 11
158.19999999999999
 21
-112.64999999999699
 31
0.0
  0
LINE
  5
265
  8
DATA
  6
CONTINUOUS
 62
     7
 10
160.0
 20
-124.6500000000029
 30
0.0
 11
160.0
 21
-112.64999999999699
 31
0.0
  0
ARC
  5
266
  8
DATA
  6
CONTINUOUS
 62
     7
 10
159.09999999999999
 20
-112.9417475435739
 30
0.0
 40
0.9461060348509655
 50
17.960824461480279
 51
162.03917553852079
  0
ARC
  5
267
  8
DATA
  6
CONTINUOUS
 62
     7
 10
159.09999999999999
 20
-124.358252456426
 30
0.0
 40
0.9461060348510196
 50
197.96082446147909
 51
342.03917553851983
  0
LINE
  5
268
  8
DATA
  6
CONTINUOUS
 62
     7
 10
154.1999999999999
 20
-124.6500000000029
 30
0.0
 11
154.1999999999999
 21
-112.64999999999699
 31
0.0
  0
LINE
  5
269
  8
DATA
  6
CONTINUOUS
 62
     7
 10
156.0
 20
-124.6500000000029
 30
0.0
 11
156.0
 21
-112.64999999999699
 31
0.0
  0
ARC
  5
26A
  8
DATA
  6
CONTINUOUS
 62
     7
 10
155.09999999999999
 20
-112.9417475435739
 30
0.0
 40
0.9461060348509655
 50
17.960824461480279
 51
162.03917553852079
  0
ARC
  5
26B
  8
DATA
  6
CONTINUOUS
 62
     7
 10
155.09999999999999
 20
-124.358252456426
 30
0.0
 40
0.9461060348510196
 50
197.96082446147909
 51
342.03917553851983
  0
LINE
  5
26C
  8
DATA
  6
CONTINUOUS
 62
     7
 10
150.19999999999999
 20
-124.6500000000029
 30
0.0
 11
150.19999999999999
 21
-112.64999999999699
 31
0.0
  0
LINE
  5
26D
  8
DATA
  6
CONTINUOUS
 62
     7
 10
152.0
 20
-124.6500000000029
 30
0.0
 11
152.0
 21
-112.64999999999699
 31
0.0
  0
ARC
  5
26E
  8
DATA
  6
CONTINUOUS
 62
     7
 10
151.09999999999999
 20
-112.9417475435739
 30
0.0
 40
0.9461060348509655
 50
17.960824461480279
 51
162.03917553852079
  0
ARC
  5
26F
  8
DATA
  6
CONTINUOUS
 62
     7
 10
151.09999999999999
 20
-124.358252456426
 30
0.0
 40
0.9461060348510196
 50
197.96082446147909
 51
342.03917553851983
  0
LINE
  5
270
  8
DATA
  6
CONTINUOUS
 62
     7
 10
146.19999999999999
 20
-124.6500000000029
 30
0.0
 11
146.19999999999999
 21
-112.64999999999699
 31
0.0
  0
LINE
  5
271
  8
DATA
  6
CONTINUOUS
 62
     7
 10
148.0
 20
-124.6500000000029
 30
0.0
 11
148.0
 21
-112.64999999999699
 31
0.0
  0
ARC
  5
272
  8
DATA
  6
CONTINUOUS
 62
     7
 10
147.09999999999999
 20
-112.9417475435739
 30
0.0
 40
0.9461060348509655
 50
17.960824461480279
 51
162.03917553852079
  0
ARC
  5
273
  8
DATA
  6
CONTINUOUS
 62
     7
 10
147.09999999999999
 20
-124.358252456426
 30
0.0
 40
0.9461060348510196
 50
197.96082446147909
 51
342.03917553851983
  0
LINE
  5
274
  8
DATA
  6
CONTINUOUS
 62
     7
 10
142.19999999999999
 20
-124.6500000000029
 30
0.0
 11
142.19999999999999
 21
-112.64999999999699
 31
0.0
  0
LINE
  5
275
  8
DATA
  6
CONTINUOUS
 62
     7
 10
144.0
 20
-124.6500000000029
 30
0.0
 11
144.0
 21
-112.64999999999699
 31
0.0
  0
ARC
  5
276
  8
DATA
  6
CONTINUOUS
 62
     7
 10
143.09999999999999
 20
-112.9417475435739
 30
0.0
 40
0.9461060348509655
 50
17.960824461480279
 51
162.03917553852079
  0
ARC
  5
277
  8
DATA
  6
CONTINUOUS
 62
     7
 10
143.09999999999999
 20
-124.358252456426
 30
0.0
 40
0.9461060348510196
 50
197.96082446147909
 51
342.03917553851983
  0
LINE
  5
278
  8
DATA
  6
CONTINUOUS
 62
     7
 10
138.19999999999999
 20
-124.6500000000029
 30
0.0
 11
138.19999999999999
 21
-112.64999999999699
 31
0.0
  0
LINE
  5
279
  8
DATA
  6
CONTINUOUS
 62
     7
 10
140.0
 20
-124.6500000000029
 30
0.0
 11
140.0
 21
-112.64999999999699
 31
0.0
  0
ARC
  5
27A
  8
DATA
  6
CONTINUOUS
 62
     7
 10
139.09999999999999
 20
-112.9417475435739
 30
0.0
 40
0.9461060348509655
 50
17.960824461480279
 51
162.03917553852079
  0
ARC
  5
27B
  8
DATA
  6
CONTINUOUS
 62
     7
 10
139.09999999999999
 20
-124.358252456426
 30
0.0
 40
0.9461060348510196
 50
197.96082446147909
 51
342.03917553851983
  0
LINE
  5
27C
  8
DATA
  6
CONTINUOUS
 62
     7
 10
134.19999999999999
 20
-124.6500000000029
 30
0.0
 11
134.19999999999999
 21
-112.64999999999699
 31
0.0
  0
LINE
  5
27D
  8
DATA
  6
CONTINUOUS
 62
     7
 10
136.0
 20
-124.6500000000029
 30
0.0
 11
136.0
 21
-112.64999999999699
 31
0.0
  0
ARC
  5
27E
  8
DATA
  6
CONTINUOUS
 62
     7
 10
135.09999999999999
 20
-112.9417475435739
 30
0.0
 40
0.9461060348509655
 50
17.960824461480279
 51
162.03917553852079
  0
ARC
  5
27F
  8
DATA
  6
CONTINUOUS
 62
     7
 10
135.09999999999999
 20
-124.358252456426
 30
0.0
 40
0.9461060348510196
 50
197.96082446147909
 51
342.03917553851983
  0
LINE
  5
280
  8
DATA
  6
CONTINUOUS
 62
     7
 10
130.19999999999999
 20
-124.6500000000029
 30
0.0
 11
130.19999999999999
 21
-112.64999999999699
 31
0.0
  0
LINE
  5
281
  8
DATA
  6
CONTINUOUS
 62
     7
 10
132.0
 20
-124.6500000000029
 30
0.0
 11
132.0
 21
-112.64999999999699
 31
0.0
  0
ARC
  5
282
  8
DATA
  6
CONTINUOUS
 62
     7
 10
131.09999999999999
 20
-112.9417475435739
 30
0.0
 40
0.9461060348509655
 50
17.960824461480279
 51
162.03917553852079
  0
ARC
  5
283
  8
DATA
  6
CONTINUOUS
 62
     7
 10
131.09999999999999
 20
-124.358252456426
 30
0.0
 40
0.9461060348510196
 50
197.96082446147909
 51
342.03917553851983
  0
LINE
  5
284
  8
DATA
  6
CONTINUOUS
 62
     7
 10
113.2
 20
-124.6500000000029
 30
0.0
 11
113.2
 21
-112.64999999999699
 31
0.0
  0
LINE
  5
285
  8
DATA
  6
CONTINUOUS
 62
     7
 10
115.0
 20
-124.6500000000029
 30
0.0
 11
115.0
 21
-112.64999999999699
 31
0.0
  0
ARC
  5
286
  8
DATA
  6
CONTINUOUS
 62
     7
 10
114.09999999999999
 20
-112.9417475435739
 30
0.0
 40
0.9461060348509655
 50
17.960824461480279
 51
162.03917553852079
  0
ARC
  5
287
  8
DATA
  6
CONTINUOUS
 62
     7
 10
114.09999999999999
 20
-124.358252456426
 30
0.0
 40
0.9461060348510196
 50
197.96082446147909
 51
342.03917553851983
  0
LINE
  5
288
  8
DATA
  6
CONTINUOUS
 62
     7
 10
109.2
 20
-124.6500000000029
 30
0.0
 11
109.2
 21
-112.64999999999699
 31
0.0
  0
LINE
  5
289
  8
DATA
  6
CONTINUOUS
 62
     7
 10
111.0
 20
-124.6500000000029
 30
0.0
 11
111.0
 21
-112.64999999999699
 31
0.0
  0
ARC
  5
28A
  8
DATA
  6
CONTINUOUS
 62
     7
 10
110.09999999999999
 20
-112.9417475435739
 30
0.0
 40
0.9461060348509655
 50
17.960824461480279
 51
162.03917553852079
  0
ARC
  5
28B
  8
DATA
  6
CONTINUOUS
 62
     7
 10
110.09999999999999
 20
-124.358252456426
 30
0.0
 40
0.9461060348510196
 50
197.96082446147909
 51
342.03917553851983
  0
LINE
  5
28C
  8
DATA
  6
CONTINUOUS
 62
     7
 10
105.2
 20
-124.6500000000029
 30
0.0
 11
105.2
 21
-112.64999999999699
 31
0.0
  0
LINE
  5
28D
  8
DATA
  6
CONTINUOUS
 62
     7
 10
107.0
 20
-124.6500000000029
 30
0.0
 11
107.0
 21
-112.64999999999699
 31
0.0
  0
ARC
  5
28E
  8
DATA
  6
CONTINUOUS
 62
     7
 10
106.09999999999999
 20
-112.9417475435739
 30
0.0
 40
0.9461060348509655
 50
17.960824461480279
 51
162.03917553852079
  0
ARC
  5
28F
  8
DATA
  6
CONTINUOUS
 62
     7
 10
106.09999999999999
 20
-124.358252456426
 30
0.0
 40
0.9461060348510196
 50
197.96082446147909
 51
342.03917553851983
  0
LINE
  5
290
  8
DATA
  6
CONTINUOUS
 62
     7
 10
101.2
 20
-124.6500000000029
 30
0.0
 11
101.2
 21
-112.64999999999699
 31
0.0
  0
LINE
  5
291
  8
DATA
  6
CONTINUOUS
 62
     7
 10
103.0
 20
-124.6500000000029
 30
0.0
 11
103.0
 21
-112.64999999999699
 31
0.0
  0
ARC
  5
292
  8
DATA
  6
CONTINUOUS
 62
     7
 10
102.09999999999999
 20
-112.9417475435739
 30
0.0
 40
0.9461060348509655
 50
17.960824461480279
 51
162.03917553852079
  0
ARC
  5
293
  8
DATA
  6
CONTINUOUS
 62
     7
 10
102.09999999999999
 20
-124.358252456426
 30
0.0
 40
0.9461060348510196
 50
197.96082446147909
 51
342.03917553851983
  0
LINE
  5
294
  8
DATA
  6
CONTINUOUS
 62
     7
 10
97.200000000000003
 20
-124.6500000000029
 30
0.0
 11
97.200000000000003
 21
-112.64999999999699
 31
0.0
  0
LINE
  5
295
  8
DATA
  6
CONTINUOUS
 62
     7
 10
99.0
 20
-124.6500000000029
 30
0.0
 11
99.0
 21
-112.64999999999699
 31
0.0
  0
ARC
  5
296
  8
DATA
  6
CONTINUOUS
 62
     7
 10
98.100000000000037
 20
-112.9417475435739
 30
0.0
 40
0.9461060348509655
 50
17.960824461480279
 51
162.03917553852079
  0
ARC
  5
297
  8
DATA
  6
CONTINUOUS
 62
     7
 10
98.100000000000037
 20
-124.358252456426
 30
0.0
 40
0.9461060348510196
 50
197.96082446147909
 51
342.03917553851983
  0
LINE
  5
298
  8
DATA
  6
CONTINUOUS
 62
     7
 10
93.200000000000003
 20
-124.6500000000029
 30
0.0
 11
93.200000000000003
 21
-112.64999999999699
 31
0.0
  0
LINE
  5
299
  8
DATA
  6
CONTINUOUS
 62
     7
 10
95.0
 20
-124.6500000000029
 30
0.0
 11
95.0
 21
-112.64999999999699
 31
0.0
  0
ARC
  5
29A
  8
DATA
  6
CONTINUOUS
 62
     7
 10
94.100000000000037
 20
-112.9417475435739
 30
0.0
 40
0.9461060348509655
 50
17.960824461480279
 51
162.03917553852079
  0
ARC
  5
29B
  8
DATA
  6
CONTINUOUS
 62
     7
 10
94.100000000000037
 20
-124.358252456426
 30
0.0
 40
0.9461060348510196
 50
197.96082446147909
 51
342.03917553851983
  0
LINE
  5
29C
  8
DATA
  6
CONTINUOUS
 62
     7
 10
89.199999999999989
 20
-124.6500000000029
 30
0.0
 11
89.199999999999989
 21
-112.64999999999699
 31
0.0
  0
LINE
  5
29D
  8
DATA
  6
CONTINUOUS
 62
     7
 10
91.0
 20
-124.6500000000029
 30
0.0
 11
91.0
 21
-112.64999999999699
 31
0.0
  0
ARC
  5
29E
  8
DATA
  6
CONTINUOUS
 62
     7
 10
90.100000000000037
 20
-112.9417475435739
 30
0.0
 40
0.9461060348509655
 50
17.960824461480279
 51
162.03917553852079
  0
ARC
  5
29F
  8
DATA
  6
CONTINUOUS
 62
     7
 10
90.100000000000037
 20
-124.358252456426
 30
0.0
 40
0.9461060348510196
 50
197.96082446147909
 51
342.03917553851983
  0
LINE
  5
2A0
  8
DATA
  6
CONTINUOUS
 62
     7
 10
85.200000000000017
 20
-124.6500000000029
 30
0.0
 11
85.200000000000017
 21
-112.64999999999699
 31
0.0
  0
LINE
  5
2A1
  8
DATA
  6
CONTINUOUS
 62
     7
 10
87.000000000000014
 20
-124.6500000000029
 30
0.0
 11
87.000000000000014
 21
-112.64999999999699
 31
0.0
  0
ARC
  5
2A2
  8
DATA
  6
CONTINUOUS
 62
     7
 10
86.100000000000037
 20
-112.9417475435739
 30
0.0
 40
0.9461060348509655
 50
17.960824461480279
 51
162.03917553852079
  0
ARC
  5
2A3
  8
DATA
  6
CONTINUOUS
 62
     7
 10
86.100000000000037
 20
-124.358252456426
 30
0.0
 40
0.9461060348510196
 50
197.96082446147909
 51
342.03917553851983
  0
LINE
  5
2A4
  8
DATA
  6
CONTINUOUS
 62
     7
 10
300.81
 20
-106.25
 30
0.0
 11
300.81
 21
-101.25
 31
0.0
  0
LINE
  5
2A5
  8
DATA
  6
CONTINUOUS
 62
     7
 10
306.38999999999999
 20
-101.25
 30
0.0
 11
306.38999999999999
 21
-106.25
 31
0.0
  0
LINE
  5
2A6
  8
DATA
  6
CONTINUOUS
 62
     7
 10
300.81
 20
-101.25
 30
0.0
 11
306.38999999999999
 21
-101.25
 31
0.0
  0
LINE
  5
2A7
  8
DATA
  6
CONTINUOUS
 62
     7
 10
280.81
 20
-106.25
 30
0.0
 11
280.81
 21
-101.25
 31
0.0
  0
LINE
  5
2A8
  8
DATA
  6
CONTINUOUS
 62
     7
 10
286.38999999999999
 20
-101.25
 30
0.0
 11
286.38999999999999
 21
-106.25
 31
0.0
  0
LINE
  5
2A9
  8
DATA
  6
CONTINUOUS
 62
     7
 10
280.81
 20
-101.25
 30
0.0
 11
286.38999999999999
 21
-101.25
 31
0.0
  0
LINE
  5
2AA
  8
DATA
  6
CONTINUOUS
 62
     7
 10
260.81
 20
-106.25
 30
0.0
 11
260.81
 21
-101.25
 31
0.0
  0
LINE
  5
2AB
  8
DATA
  6
CONTINUOUS
 62
     7
 10
266.38999999999999
 20
-101.25
 30
0.0
 11
266.38999999999999
 21
-106.25
 31
0.0
  0
LINE
  5
2AC
  8
DATA
  6
CONTINUOUS
 62
     7
 10
260.81
 20
-101.25
 30
0.0
 11
266.38999999999999
 21
-101.25
 31
0.0
  0
LINE
  5
2AD
  8
DATA
  6
CONTINUOUS
 62
     7
 10
98.799999999999997
 20
-101.25
 30
0.0
 11
98.799999999999997
 21
-106.25
 31
0.0
  0
LINE
  5
2AE
  8
DATA
  6
CONTINUOUS
 62
     7
 10
94.199999999999989
 20
-106.25
 30
0.0
 11
94.199999999999989
 21
-101.25
 31
0.0
  0
LINE
  5
2AF
  8
DATA
  6
CONTINUOUS
 62
     7
 10
100.5
 20
-101.25
 30
0.0
 11
100.5
 21
-106.25
 31
0.0
  0
LINE
  5
2B0
  8
DATA
  6
CONTINUOUS
 62
     7
 10
92.5
 20
-106.25
 30
0.0
 11
92.5
 21
-101.25
 31
0.0
  0
LINE
  5
2B1
  8
DATA
  6
CONTINUOUS
 62
     7
 10
100.5
 20
-101.25
 30
0.0
 11
92.5
 21
-101.25
 31
0.0
  0
ARC
  5
2B2
  8
DATA
  6
CONTINUOUS
 62
     7
 10
126.5
 20
-106.25
 30
0.0
 40
1.400000000000005
 50
0.0
 51
180.0
  0
ARC
  5
2B3
  8
DATA
  6
CONTINUOUS
 62
     7
 10
132.5
 20
-106.25
 30
0.0
 40
1.400000000000005
 50
0.0
 51
180.0
  0
LINE
  5
2B4
  8
DATA
  6
CONTINUOUS
 62
     7
 10
70.5
 20
-110.25
 30
0.0
 11
70.5
 21
-118.0500000000001
 31
0.0
  0
LINE
  5
2B5
  8
DATA
  6
CONTINUOUS
 62
     7
 10
75.000000000000028
 20
-119.9235026918963
 30
0.0
 11
76.500000000000028
 21
-119.9235026918963
 31
0.0
  0
LINE
  5
2B6
  8
DATA
  6
CONTINUOUS
 62
     7
 10
75.000000000000028
 20
-108.37649730810379
 30
0.0
 11
76.500000000000028
 21
-108.37649730810379
 31
0.0
  0
LINE
  5
2B7
  8
DATA
  6
CONTINUOUS
 62
     7
 10
75.000000000000028
 20
-119.9235026918963
 30
0.0
 11
75.000000000000028
 21
-108.37649730810379
 31
0.0
  0
LINE
  5
2B8
  8
DATA
  6
CONTINUOUS
 62
     7
 10
70.5
 20
-118.0500000000001
 30
0.0
 11
75.000000000000028
 21
-118.0500000000001
 31
0.0
  0
LINE
  5
2B9
  8
DATA
  6
CONTINUOUS
 62
     7
 10
70.5
 20
-110.25
 30
0.0
 11
75.000000000000028
 21
-110.25
 31
0.0
  0
ENDSEC
  0
EOF
