  0
SECTION
  2
HEADER
  9
$ACADVER
  1
AC1009
  9
$INSBASE
 10
0.0
 20
0.0
 30
0.0
  9
$EXTMIN
 10
-35.0
 20
-64.597180941915653
 30
0.0
  9
$EXTMAX
 10
235.0
 20
336.7591372734525
 30
0.0
  9
$LIMMIN
 10
0.0
 20
0.0
  9
$LIMMAX
 10
0.0
 20
0.0
  9
$ORTHOMODE
 70
     0
  9
$REGENMODE
 70
     1
  9
$FILLMODE
 70
     1
  9
$QTEXTMODE
 70
     0
  9
$MIRRTEXT
 70
     1
  9
$DRAGMODE
 70
     2
  9
$LTSCALE
 40
7.6199999999999983
  9
$OSMODE
 70
   231
  9
$ATTMODE
 70
     1
  9
$TEXTSIZE
 40
0.0
  9
$TRACEWID
 40
1.0
  9
$TEXTSTYLE
  7
STANDARD
  9
$CLAYER
  8
DATA
  9
$CELTYPE
  6
BYLAYER
  9
$CECOLOR
 62
   256
  9
$DIMSCALE
 40
1.0
  9
$DIMASZ
 40
0.18
  9
$DIMEXO
 40
0.0625
  9
$DIMDLI
 40
0.38
  9
$DIMRND
 40
0.0
  9
$DIMDLE
 40
0.0
  9
$DIMEXE
 40
0.18
  9
$DIMTP
 40
0.0
  9
$DIMTM
 40
0.0
  9
$DIMTXT
 40
0.18
  9
$DIMCEN
 40
0.09
  9
$DIMTSZ
 40
0.0
  9
$DIMTOL
 70
     0
  9
$DIMLIM
 70
     0
  9
$DIMTIH
 70
     1
  9
$DIMTOH
 70
     1
  9
$DIMSE1
 70
     0
  9
$DIMSE2
 70
     0
  9
$DIMTAD
 70
     0
  9
$DIMZIN
 70
     0
  9
$DIMBLK
  1

  9
$DIMASO
 70
     1
  9
$DIMSHO
 70
     1
  9
$DIMPOST
  1

  9
$DIMAPOST
  1

  9
$DIMALT
 70
     0
  9
$DIMALTD
 70
     2
  9
$DIMALTF
 40
25.399999999999999
  9
$DIMLFAC
 40
1.0
  9
$DIMTOFL
 70
     0
  9
$DIMTVP
 40
0.0
  9
$DIMTIX
 70
     0
  9
$DIMSOXD
 70
     0
  9
$DIMSAH
 70
     0
  9
$DIMBLK1
  1

  9
$DIMBLK2
  1

  9
$DIMSTYLE
  2
STANDARD
  9
$DIMCLRD
 70
     0
  9
$DIMCLRE
 70
     0
  9
$DIMCLRT
 70
     0
  9
$DIMTFAC
 40
1.0
  9
$DIMGAP
 40
0.09
  9
$LUNITS
 70
     2
  9
$LUPREC
 70
     4
  9
$SKETCHINC
 40
0.1
  9
$FILLETRAD
 40
0.0
  9
$AUNITS
 70
     0
  9
$AUPREC
 70
     0
  9
$MENU
  1
acad
  9
$ELEVATION
 40
0.0
  9
$PELEVATION
 40
0.0
  9
$THICKNESS
 40
0.0
  9
$LIMCHECK
 70
     0
  9
$BLIPMODE
 70
     0
  9
$CHAMFERA
 40
0.0
  9
$CHAMFERB
 40
0.0
  9
$SKPOLY
 70
     0
  9
$TDCREATE
 40
2455281.428969908
  9
$TDUPDATE
 40
2455281.4336527539
  9
$TDINDWG
 40
0.0004686574
  9
$TDUSRTIMER
 40
0.0004686574
  9
$USRTIMER
 70
     1
  9
$ANGBASE
 50
0.0
  9
$ANGDIR
 70
     0
  9
$PDMODE
 70
     1
  9
$PDSIZE
 40
-2.0
  9
$PLINEWID
 40
0.0
  9
$COORDS
 70
     0
  9
$SPLFRAME
 70
     0
  9
$SPLINETYPE
 70
     6
  9
$SPLINESEGS
 70
     8
  9
$ATTDIA
 70
     0
  9
$ATTREQ
 70
     1
  9
$HANDLING
 70
     1
  9
$HANDSEED
  5
A6D
  9
$SURFTAB1
 70
     6
  9
$SURFTAB2
 70
     6
  9
$SURFTYPE
 70
     6
  9
$SURFU
 70
     6
  9
$SURFV
 70
     6
  9
$UCSNAME
  2

  9
$UCSORG
 10
0.0
 20
0.0
 30
0.0
  9
$UCSXDIR
 10
1.0
 20
0.0
 30
0.0
  9
$UCSYDIR
 10
0.0
 20
1.0
 30
0.0
  9
$PUCSNAME
  2

  9
$PUCSORG
 10
0.0
 20
0.0
 30
0.0
  9
$PUCSXDIR
 10
1.0
 20
0.0
 30
0.0
  9
$PUCSYDIR
 10
0.0
 20
1.0
 30
0.0
  9
$USERI1
 70
     0
  9
$USERI2
 70
     0
  9
$USERI3
 70
     0
  9
$USERI4
 70
     0
  9
$USERI5
 70
     0
  9
$USERR1
 40
0.0
  9
$USERR2
 40
0.0
  9
$USERR3
 40
0.0
  9
$USERR4
 40
0.0
  9
$USERR5
 40
0.0
  9
$WORLDVIEW
 70
     1
  9
$SHADEDGE
 70
     3
  9
$SHADEDIF
 70
    70
  9
$TILEMODE
 70
     1
  9
$MAXACTVP
 70
    64
  9
$PLIMCHECK
 70
     0
  9
$PEXTMIN
 10
1.0000000000000000E+020
 20
1.0000000000000000E+020
 30
1.0000000000000000E+020
  9
$PEXTMAX
 10
-1.0000000000000000E+020
 20
-1.0000000000000000E+020
 30
-1.0000000000000000E+020
  9
$PLIMMIN
 10
0.0
 20
0.0
  9
$PLIMMAX
 10
12.0
 20
9.0
  9
$UNITMODE
 70
     0
  9
$VISRETAIN
 70
     0
  9
$PLINEGEN
 70
     1
  9
$PSLTSCALE
 70
     0
  0
ENDSEC
  0
SECTION
  2
TABLES
  0
TABLE
  2
VPORT
 70
     1
  0
VPORT
  2
*ACTIVE
 70
     0
 10
0.0
 20
0.0
 11
1.0
 21
1.0
 12
100.00000062864289
 22
136.08444758372309
 13
0.0
 23
0.0
 14
1.0
 24
1.0
 15
0.0
 25
0.0
 16
0.0
 26
0.0
 36
1.0
 17
0.0
 27
0.0
 37
0.0
 40
404.33599765192997
 41
1.9667487684729059
 42
50.0
 43
0.0
 44
0.0
 50
0.0
 51
0.0
 71
     0
 72
  2000
 73
     1
 74
     1
 75
     0
 76
     0
 77
     0
 78
     0
  0
ENDTAB
  0
TABLE
  2
LTYPE
 70
     1
  0
LTYPE
  2
CONTINUOUS
 70
     0
  3
Solid line
 72
    65
 73
     0
 40
0.0
  0
ENDTAB
  0
TABLE
  2
LAYER
 70
     5
  0
LAYER
  2
0
 70
     0
 62
     7
  6
CONTINUOUS
  0
LAYER
  2
DATA
 70
     0
 62
     7
  6
CONTINUOUS
  0
LAYER
  2
HIBINO-BASE
 70
     0
 62
     7
  6
CONTINUOUS
  0
LAYER
  2
SPEC
 70
     0
 62
     7
  6
CONTINUOUS
  0
LAYER
  2
DIMNSIONS
 70
     0
 62
     7
  6
CONTINUOUS
  0
ENDTAB
  0
TABLE
  2
STYLE
 70
     2
  0
STYLE
  2
STANDARD
 70
     0
 40
0.0
 41
1.0
 50
0.0
 71
     0
 42
0.0
  3
txt
  4
BIGFONT.SHX
  0
ENDTAB
  0
TABLE
  2
VIEW
 70
     0
  0
ENDTAB
  0
TABLE
  2
UCS
 70
     0
  0
ENDTAB
  0
TABLE
  2
APPID
 70
     3
  0
APPID
  2
ACAD
 70
     0
  0
APPID
  2
ACADANNOTATIVE
 70
     0
  0
APPID
  2
ACAD_MLEADERVER
 70
     0
  0
ENDTAB
  0
TABLE
  2
DIMSTYLE
 70
     2
  0
DIMSTYLE
  2
STANDARD
 70
     0
  3

  4

  5

  6

  7

 40
1.0
 41
0.18
 42
0.0625
 43
0.38
 44
0.18
 45
0.0
 46
0.0
 47
0.0
 48
0.0
140
0.18
141
0.09
142
0.0
143
25.399999999999999
144
1.0
145
0.0
146
1.0
147
0.09
 71
     0
 72
     0
 73
     1
 74
     1
 75
     0
 76
     0
 77
     0
 78
     0
170
     0
171
     2
172
     0
173
     0
174
     0
175
     0
176
     0
177
     0
178
     0
  0
ENDTAB
  0
ENDSEC
  0
SECTION
  2
BLOCKS
  0
BLOCK
  8
0
  2
$MODEL_SPACE
 70
     0
 10
0.0
 20
0.0
 30
0.0
  3
$MODEL_SPACE
  1

  0
ENDBLK
  5
893
  8
0
  0
BLOCK
 67
     1
  8
0
  2
$PAPER_SPACE
 70
     0
 10
0.0
 20
0.0
 30
0.0
  3
$PAPER_SPACE
  1

  0
ENDBLK
  5
88F
 67
     1
  8
0
  0
ENDSEC
  0
SECTION
  2
ENTITIES
  0
LINE
  5
2D
  8
HIBINO-BASE
  6
CONTINUOUS
 62
     7
 10
-35.0
 20
336.7591372734525
 30
0.0
 11
235.0
 21
336.7591372734525
 31
0.0
  0
LINE
  5
2E
  8
HIBINO-BASE
  6
CONTINUOUS
 62
     7
 10
235.0
 20
-53.240862726547419
 30
0.0
 11
-35.0
 21
-53.240862726547419
 31
0.0
  0
LINE
  5
2F
  8
HIBINO-BASE
  6
CONTINUOUS
 62
     7
 10
-35.0
 20
-53.240862726547419
 30
0.0
 11
-35.0
 21
336.7591372734525
 31
0.0
  0
LINE
  5
30
  8
HIBINO-BASE
  6
CONTINUOUS
 62
     7
 10
235.0
 20
336.7591372734525
 30
0.0
 11
235.0
 21
-53.240862726547419
 31
0.0
  0
LINE
  5
31
  8
HIBINO-BASE
  6
CONTINUOUS
 62
     7
 10
100.0
 20
-19.490862726547391
 30
0.0
 11
235.0
 21
-19.490862726547391
 31
0.0
  0
LINE
  5
32
  8
HIBINO-BASE
  6
CONTINUOUS
 62
     7
 10
100.0
 20
-53.240862726547419
 30
0.0
 11
100.0
 21
-19.490862726547391
 31
0.0
  0
TEXT
  5
33
  8
HIBINO-BASE
 62
     7
 10
101.34999999999999
 20
-23.253902726547409
 30
0.0
 40
2.4432617187500001
  1
NOTE
 41
0.7
 11
101.34999999999999
 21
-20.810641007797411
 31
0.0
 73
     3
  0
LINE
  5
34
  8
HIBINO-BASE
  6
CONTINUOUS
 62
     7
 10
152.5
 20
-53.240862726547419
 30
0.0
 11
152.5
 21
-19.490862726547391
 31
0.0
  0
TEXT
  5
35
  8
HIBINO-BASE
 62
     7
 10
153.84999999999991
 20
-23.253902726547409
 30
0.0
 40
2.4432617187500001
  1
TITLE
 41
0.7
 11
153.84999999999991
 21
-20.810641007797411
 31
0.0
 73
     3
  0
LINE
  5
36
  8
HIBINO-BASE
  6
CONTINUOUS
 62
     7
 10
100.0
 20
-38.240862726547391
 30
0.0
 11
235.0
 21
-38.240862726547391
 31
0.0
  0
TEXT
  5
37
  8
HIBINO-BASE
 62
     7
 10
172.59999999999991
 20
-41.919422726547403
 30
0.0
 40
2.4432617187500001
  1
DRAWN
 41
0.7
 11
172.59999999999991
 21
-39.476161007797401
 31
0.0
 73
     3
  0
TEXT
  5
38
  8
HIBINO-BASE
 62
     7
 10
135.09999999999991
 20
-41.919422726547403
 30
0.0
 40
2.4432617187500001
  1
DATE
 41
0.7
 11
135.09999999999991
 21
-39.476161007797401
 31
0.0
 73
     3
  0
TEXT
  5
39
  8
HIBINO-BASE
 62
     7
 10
120.09999999999999
 20
-41.919422726547403
 30
0.0
 40
2.4432617187500001
  1
SCALE
 41
0.7
 11
120.09999999999999
 21
-39.476161007797401
 31
0.0
 73
     3
  0
TEXT
  5
3A
  8
HIBINO-BASE
 62
     7
 10
153.84999999999991
 20
-41.919422726547403
 30
0.0
 40
2.4432617187500001
  1
DESIGN
 41
0.7
 11
153.84999999999991
 21
-39.476161007797401
 31
0.0
 73
     3
  0
TEXT
  5
3B
  8
HIBINO-BASE
 62
     7
 10
210.09999999999999
 20
-41.919422726547403
 30
0.0
 40
2.4432617187500001
  1
DRAWING NO.
 41
0.7
 11
210.09999999999999
 21
-39.476161007797401
 31
0.0
 73
     3
  0
TEXT
  5
3C
  8
HIBINO-BASE
 62
     7
 10
191.34999999999999
 20
-41.919422726547403
 30
0.0
 40
2.4432617187500001
  1
CHECK
 41
0.7
 11
191.34999999999999
 21
-39.476161007797401
 31
0.0
 73
     3
  0
LINE
  5
3D
  8
HIBINO-BASE
  6
CONTINUOUS
 62
     7
 10
121.5625
 20
-51.365862726547419
 30
0.0
 11
127.1875
 21
-45.740862726547391
 31
0.0
  0
TEXT
  5
3E
  8
HIBINO-BASE
 62
     7
 10
120.625
 20
-47.404277726547363
 30
0.0
 40
2.4432617187500001
  1
1
 41
0.7
 11
120.625
 21
-44.961016007797348
 31
0.0
 73
     3
  0
LINE
  5
3F
  8
HIBINO-BASE
  6
CONTINUOUS
 62
     7
 10
118.75
 20
-53.240862726547419
 30
0.0
 11
118.75
 21
-38.240862726547391
 31
0.0
  0
LINE
  5
40
  8
HIBINO-BASE
  6
CONTINUOUS
 62
     7
 10
133.7499999999998
 20
-53.240862726547419
 30
0.0
 11
133.7499999999998
 21
-38.240862726547391
 31
0.0
  0
LINE
  5
41
  8
HIBINO-BASE
  6
CONTINUOUS
 62
     7
 10
171.2499999999998
 20
-38.240862726547391
 30
0.0
 11
171.2499999999998
 21
-53.240862726547419
 31
0.0
  0
LINE
  5
42
  8
HIBINO-BASE
  6
CONTINUOUS
 62
     7
 10
208.75
 20
-38.240862726547391
 30
0.0
 11
208.75
 21
-53.240862726547419
 31
0.0
  0
LINE
  5
43
  8
HIBINO-BASE
  6
CONTINUOUS
 62
     7
 10
190.0
 20
-53.240862726547419
 30
0.0
 11
190.0
 21
-38.240862726547391
 31
0.0
  0
TEXT
  5
44
  8
HIBINO-BASE
 62
     7
 10
135.03480999999999
 20
-48.945392726547389
 30
0.0
 40
2.4432617187500001
  1
'10.03.
 41
0.7
 11
135.03480999999999
 21
-46.502131007797402
 31
0.0
 73
     3
  0
TEXT
  5
45
  8
HIBINO-BASE
 62
     7
 10
126.25
 20
-50.216777726547377
 30
0.0
 40
2.4432617187500001
  1
1.5
 41
0.7
 11
126.25
 21
-47.773516007797383
 31
0.0
 73
     3
  0
TEXT
  5
46
  8
HIBINO-BASE
 62
     7
 10
105.825
 20
-50.276862726547392
 30
0.0
 40
4.8865234374999993
  1
A4
 41
0.7
 11
105.825
 21
-45.39033928904739
 31
0.0
 73
     3
  0
TEXT
  5
47
  8
HIBINO-BASE
 62
     7
 10
101.4375
 20
-42.170045226547423
 30
0.0
 40
2.4432617187500001
  1
PAPER SIZE
 41
0.7
 11
101.4375
 21
-39.726783507797421
 31
0.0
 73
     3
  0
TEXT
  5
48
  8
HIBINO-BASE
 62
     7
 10
-30.628683879802811
 20
-62.832603033929551
 30
0.0
 40
5.2937337239583311
  1
Hibino-Intersound Corporation
 41
0.7
 11
-30.628683879802811
 21
-57.538869309971219
 31
0.0
 73
     3
  0
TEXT
  5
49
  8
HIBINO-BASE
 62
     7
 10
130.9689499059817
 20
-62.367094533240632
 30
0.0
 40
5.2937337239583311
  1
ヒビノインターサウンド株式会社
 41
0.7
 11
130.9689499059817
 21
-57.073360809282292
 31
0.0
 73
     3
  0
TEXT
  5
4A
  8
HIBINO-BASE
 62
     7
 10
172.93963394981009
 20
-48.876378973608887
 30
0.0
 40
2.4432617187500001
  1
T.Ootake
 41
0.7
 11
172.93963394981009
 21
-46.433117254858892
 31
0.0
 73
     3
  0
LINE
  5
4B
  8
SPEC
  6
CONTINUOUS
 62
     7
 10
-23.749999999999989
 20
321.7591372734525
 30
0.0
 11
197.5
 21
321.7591372734525
 31
0.0
  0
LINE
  5
4C
  8
SPEC
  6
CONTINUOUS
 62
     7
 10
-23.749999999999989
 20
316.1341372734525
 30
0.0
 11
197.5
 21
316.1341372734525
 31
0.0
  0
LINE
  5
4D
  8
SPEC
  6
CONTINUOUS
 62
     7
 10
-23.749999999999989
 20
304.8841372734525
 30
0.0
 11
197.5
 21
304.8841372734525
 31
0.0
  0
LINE
  5
4E
  8
SPEC
  6
CONTINUOUS
 62
     7
 10
-23.749999999999989
 20
310.5091372734525
 30
0.0
 11
197.5
 21
310.5091372734525
 31
0.0
  0
LINE
  5
4F
  8
SPEC
  6
CONTINUOUS
 62
     7
 10
-23.749999999999989
 20
321.7591372734525
 30
0.0
 11
-23.749999999999989
 21
299.25413727345261
 31
0.0
  0
TEXT
  5
50
  8
SPEC
 62
     7
 10
-21.874999999999989
 20
323.84904227345271
 30
0.0
 40
3.664892578124999
  1
仕様
 41
0.7
 11
-21.874999999999989
 21
327.51393485157757
 31
0.0
 73
     3
  0
LINE
  5
51
  8
SPEC
  6
CONTINUOUS
 62
     7
 10
25.0
 20
321.7591372734525
 30
0.0
 11
25.0
 21
299.25413727345261
 31
0.0
  0
LINE
  5
52
  8
SPEC
  6
CONTINUOUS
 62
     7
 10
197.5
 20
321.7591372734525
 30
0.0
 11
197.5
 21
299.25413727345261
 31
0.0
  0
TEXT
  5
53
  8
SPEC
 62
     7
 10
-22.400000000000009
 20
317.31601394011932
 30
0.0
 40
2.850472005208331
  1
HDMI入出力端子
 41
0.7
 11
-22.400000000000009
 21
320.16648594532762
 31
0.0
 73
     3
  0
TEXT
  5
54
  8
SPEC
 62
     7
 10
-22.417268331076439
 20
306.42093844419372
 30
0.0
 40
2.850472005208331
  1
寸法
 41
0.7
 11
-22.417268331076439
 21
309.27141044940203
 31
0.0
 73
     3
  0
TEXT
  5
55
  8
SPEC
 62
     7
 10
-22.386560820886348
 20
300.74746305182128
 30
0.0
 40
2.850472005208331
  1
重量
 41
0.7
 11
-22.386560820886348
 21
303.5979350570297
 31
0.0
 73
     3
  0
TEXT
  5
56
  8
SPEC
 62
     7
 10
26.399680512680451
 20
306.31569873287071
 30
0.0
 40
2.850472005208331
  1
71(W)\U+00D7115(H)\U+00D736(D)mm(突起部含まず)
 41
0.7
 11
26.399680512680451
 21
309.16617073807907
 31
0.0
 73
     3
  0
TEXT
  5
57
  8
SPEC
 62
     7
 10
26.344233448928041
 20
300.90064305155971
 30
0.0
 40
2.850472005208331
  1
約105g
 41
0.7
 11
26.344233448928041
 21
303.75111505676801
 31
0.0
 73
     3
  0
TEXT
  5
58
  8
SPEC
 62
     7
 10
26.5008834961228
 20
317.37043610192291
 30
0.0
 40
2.850472005208331
  1
type A 19pin
 41
0.7
 11
26.5008834961228
 21
320.22090810713121
 31
0.0
 73
     3
  0
LINE
  5
59
  8
SPEC
  6
CONTINUOUS
 62
     7
 10
-23.749999999999989
 20
299.25413727345261
 30
0.0
 11
197.5
 21
299.25413727345261
 31
0.0
  0
TEXT
  5
5A
  8
SPEC
 62
     7
 10
-22.400000000000009
 20
311.68601394011932
 30
0.0
 40
2.850472005208331
  1
DVI入出力端子
 41
0.7
 11
-22.400000000000009
 21
314.53648594532763
 31
0.0
 73
     3
  0
TEXT
  5
5B
  8
SPEC
 62
     7
 10
26.5008834961228
 20
311.74043610192291
 30
0.0
 40
2.850472005208331
  1
DVI-I 29pin female
 41
0.7
 11
26.5008834961228
 21
314.59090810713121
 31
0.0
 73
     3
  0
TEXT
  5
5C
  8
DIMNSIONS
 62
     7
 10
69.999999999999986
 20
-34.836627726547391
 30
0.0
 40
3.664892578124999
  1
(単位：mm)
 41
0.7
 11
69.999999999999986
 21
-31.171735148422389
 31
0.0
 73
     3
  0
LINE
  5
5D
  8
DIMNSIONS
  6
CONTINUOUS
 62
     7
 10
6.375
 20
31.25
 30
0.0
 11
-15.5
 21
31.25
 31
0.0
  0
LINE
  5
5E
  8
DIMNSIONS
  6
CONTINUOUS
 62
     7
 10
6.375
 20
146.25
 30
0.0
 11
-15.5
 21
146.25
 31
0.0
  0
LINE
  5
5F
  8
DIMNSIONS
  6
CONTINUOUS
 62
     7
 10
-12.5
 20
31.25
 30
0.0
 11
-12.5
 21
146.25
 31
0.0
  0
LINE
  5
60
  8
DIMNSIONS
  6
CONTINUOUS
 62
     7
 10
-12.5
 20
31.25
 30
0.0
 11
-13.50505969272537
 21
35.000933837890628
 31
0.0
  0
LINE
  5
61
  8
DIMNSIONS
  6
CONTINUOUS
 62
     7
 10
-12.5
 20
31.25
 30
0.0
 11
-11.49494030727463
 21
35.000933837890628
 31
0.0
  0
LINE
  5
62
  8
DIMNSIONS
  6
CONTINUOUS
 62
     7
 10
-12.5
 20
146.25
 30
0.0
 11
-11.49494030727463
 21
142.49906616210939
 31
0.0
  0
LINE
  5
63
  8
DIMNSIONS
  6
CONTINUOUS
 62
     7
 10
-12.5
 20
146.25
 30
0.0
 11
-13.50505969272537
 21
142.49906616210939
 31
0.0
  0
TEXT
  5
64
  8
DIMNSIONS
 62
     7
 10
-13.99083333333331
 20
84.78125
 30
0.0
 40
4.072102864583333
  1
115
 50
90.0
 41
0.7
 11
-18.062936197916649
 21
84.78125
 31
0.0
 73
     3
  0
LINE
  5
65
  8
DIMNSIONS
  6
CONTINUOUS
 62
     7
 10
9.375
 20
31.25
 30
0.0
 11
9.375
 21
6.375
 31
0.0
  0
LINE
  5
66
  8
DIMNSIONS
  6
CONTINUOUS
 62
     7
 10
80.374999999999986
 20
31.25
 30
0.0
 11
80.374999999999986
 21
6.375
 31
0.0
  0
LINE
  5
67
  8
DIMNSIONS
  6
CONTINUOUS
 62
     7
 10
9.375
 20
9.375
 30
0.0
 11
80.374999999999986
 21
9.375
 31
0.0
  0
LINE
  5
68
  8
DIMNSIONS
  6
CONTINUOUS
 62
     7
 10
9.375
 20
9.375
 30
0.0
 11
13.12593383789063
 21
10.38005969272535
 31
0.0
  0
LINE
  5
69
  8
DIMNSIONS
  6
CONTINUOUS
 62
     7
 10
9.375
 20
9.375
 30
0.0
 11
13.12593383789063
 21
8.3699403072746463
 31
0.0
  0
LINE
  5
6A
  8
DIMNSIONS
  6
CONTINUOUS
 62
     7
 10
80.374999999999986
 20
9.375
 30
0.0
 11
76.624066162109372
 21
8.3699403072746463
 31
0.0
  0
LINE
  5
6B
  8
DIMNSIONS
  6
CONTINUOUS
 62
     7
 10
80.374999999999986
 20
9.375
 30
0.0
 11
76.624066162109372
 21
10.38005969272535
 31
0.0
  0
TEXT
  5
6C
  8
DIMNSIONS
 62
     7
 10
42.22916666666665
 20
10.86583333333334
 30
0.0
 40
4.072102864583333
  1
71
 41
0.7
 11
42.22916666666665
 21
14.93793619791667
 31
0.0
 73
     3
  0
LINE
  5
6D
  8
DIMNSIONS
  6
CONTINUOUS
 62
     7
 10
36.875
 20
47.0
 30
0.0
 11
-6.125
 21
47.0
 31
0.0
  0
LINE
  5
6E
  8
DIMNSIONS
  6
CONTINUOUS
 62
     7
 10
36.875
 20
130.5
 30
0.0
 11
-6.125
 21
130.5
 31
0.0
  0
LINE
  5
6F
  8
DIMNSIONS
  6
CONTINUOUS
 62
     7
 10
-3.125
 20
47.0
 30
0.0
 11
-3.125
 21
130.5
 31
0.0
  0
LINE
  5
70
  8
DIMNSIONS
  6
CONTINUOUS
 62
     7
 10
-3.125
 20
47.0
 30
0.0
 11
-4.1300596927253661
 21
50.750933837890628
 31
0.0
  0
LINE
  5
71
  8
DIMNSIONS
  6
CONTINUOUS
 62
     7
 10
-3.125
 20
47.0
 30
0.0
 11
-2.1199403072746321
 21
50.750933837890628
 31
0.0
  0
LINE
  5
72
  8
DIMNSIONS
  6
CONTINUOUS
 62
     7
 10
-3.125
 20
130.5
 30
0.0
 11
-2.1199403072746321
 21
126.7490661621093
 31
0.0
  0
LINE
  5
73
  8
DIMNSIONS
  6
CONTINUOUS
 62
     7
 10
-3.125
 20
130.5
 30
0.0
 11
-4.1300596927253661
 21
126.7490661621093
 31
0.0
  0
TEXT
  5
74
  8
DIMNSIONS
 62
     7
 10
-4.6158333333333372
 20
83.458333333333329
 30
0.0
 40
4.072102864583333
  1
83.5
 50
90.0
 41
0.7
 11
-8.6879361979166703
 21
83.458333333333329
 31
0.0
 73
     3
  0
LINE
  5
75
  8
DIMNSIONS
  6
CONTINUOUS
 62
     7
 10
9.9004003625411343
 20
178.125
 30
0.0
 11
-15.5
 21
178.125
 31
0.0
  0
LINE
  5
76
  8
DIMNSIONS
  6
CONTINUOUS
 62
     7
 10
21.869768349622859
 20
214.125
 30
0.0
 11
-15.5
 21
214.125
 31
0.0
  0
LINE
  5
77
  8
DIMNSIONS
  6
CONTINUOUS
 62
     7
 10
-12.5
 20
178.125
 30
0.0
 11
-12.5
 21
214.125
 31
0.0
  0
LINE
  5
78
  8
DIMNSIONS
  6
CONTINUOUS
 62
     7
 10
-12.5
 20
178.125
 30
0.0
 11
-13.50505969272537
 21
181.87593383789061
 31
0.0
  0
LINE
  5
79
  8
DIMNSIONS
  6
CONTINUOUS
 62
     7
 10
-12.5
 20
178.125
 30
0.0
 11
-11.49494030727463
 21
181.87593383789061
 31
0.0
  0
LINE
  5
7A
  8
DIMNSIONS
  6
CONTINUOUS
 62
     7
 10
-12.5
 20
214.125
 30
0.0
 11
-11.49494030727463
 21
210.37406616210939
 31
0.0
  0
LINE
  5
7B
  8
DIMNSIONS
  6
CONTINUOUS
 62
     7
 10
-12.5
 20
214.125
 30
0.0
 11
-13.50505969272537
 21
210.37406616210939
 31
0.0
  0
TEXT
  5
7C
  8
DIMNSIONS
 62
     7
 10
-13.99083333333331
 20
193.4791666666666
 30
0.0
 40
4.072102864583333
  1
36
 50
90.0
 41
0.7
 11
-18.062936197916649
 21
193.4791666666666
 31
0.0
 73
     3
  0
LINE
  5
7D
  8
DIMNSIONS
  6
CONTINUOUS
 62
     7
 10
9.9004003625411343
 20
178.125
 30
0.0
 11
-6.125
 21
178.125
 31
0.0
  0
LINE
  5
7E
  8
DIMNSIONS
  6
CONTINUOUS
 62
     7
 10
6.3750000000000142
 20
183.72499999999999
 30
0.0
 11
-6.125
 21
183.72499999999999
 31
0.0
  0
LINE
  5
7F
  8
DIMNSIONS
  6
CONTINUOUS
 62
     7
 10
-3.125
 20
183.72499999999999
 30
0.0
 11
-3.125
 21
178.125
 31
0.0
  0
LINE
  5
80
  8
DIMNSIONS
  6
CONTINUOUS
 62
     7
 10
-3.125
 20
178.125
 30
0.0
 11
-3.125
 21
170.625
 31
0.0
  0
LINE
  5
81
  8
DIMNSIONS
  6
CONTINUOUS
 62
     7
 10
-3.125
 20
178.125
 30
0.0
 11
-2.1199403072746321
 21
174.37406616210939
 31
0.0
  0
LINE
  5
82
  8
DIMNSIONS
  6
CONTINUOUS
 62
     7
 10
-3.125
 20
178.125
 30
0.0
 11
-4.1300596927253661
 21
174.37406616210939
 31
0.0
  0
LINE
  5
83
  8
DIMNSIONS
  6
CONTINUOUS
 62
     7
 10
-3.125
 20
183.72499999999999
 30
0.0
 11
-3.125
 21
195.4375
 31
0.0
  0
LINE
  5
84
  8
DIMNSIONS
  6
CONTINUOUS
 62
     7
 10
-3.125
 20
183.72499999999999
 30
0.0
 11
-4.1300596927253661
 21
187.47593383789061
 31
0.0
  0
LINE
  5
85
  8
DIMNSIONS
  6
CONTINUOUS
 62
     7
 10
-3.125
 20
183.72499999999999
 30
0.0
 11
-2.1199403072746321
 21
187.47593383789061
 31
0.0
  0
TEXT
  5
86
  8
DIMNSIONS
 62
     7
 10
-4.615833333333323
 20
187.5
 30
0.0
 40
4.072102864583333
  1
5.6
 50
90.0
 41
0.7
 11
-8.6879361979166561
 21
187.5
 31
0.0
 73
     3
  0
LINE
  5
87
  8
DIMNSIONS
  6
CONTINUOUS
 62
     7
 10
37.953568710364337
 20
173.125
 30
0.0
 11
-15.5
 21
173.125
 31
0.0
  0
LINE
  5
88
  8
DIMNSIONS
  6
CONTINUOUS
 62
     7
 10
6.9004003625411343
 20
178.125
 30
0.0
 11
-15.5
 21
178.125
 31
0.0
  0
LINE
  5
89
  8
DIMNSIONS
  6
CONTINUOUS
 62
     7
 10
-12.5
 20
178.125
 30
0.0
 11
-12.5
 21
173.125
 31
0.0
  0
LINE
  5
8A
  8
DIMNSIONS
  6
CONTINUOUS
 62
     7
 10
-12.5
 20
173.125
 30
0.0
 11
-12.5
 21
166.1041666666666
 31
0.0
  0
LINE
  5
8B
  8
DIMNSIONS
  6
CONTINUOUS
 62
     7
 10
-12.5
 20
173.125
 30
0.0
 11
-11.49494030727463
 21
169.37406616210939
 31
0.0
  0
LINE
  5
8C
  8
DIMNSIONS
  6
CONTINUOUS
 62
     7
 10
-12.5
 20
173.125
 30
0.0
 11
-13.50505969272537
 21
169.37406616210939
 31
0.0
  0
LINE
  5
8D
  8
DIMNSIONS
  6
CONTINUOUS
 62
     7
 10
-12.5
 20
178.125
 30
0.0
 11
-12.5
 21
185.625
 31
0.0
  0
LINE
  5
8E
  8
DIMNSIONS
  6
CONTINUOUS
 62
     7
 10
-12.5
 20
178.125
 30
0.0
 11
-13.50505969272537
 21
181.87593383789061
 31
0.0
  0
LINE
  5
8F
  8
DIMNSIONS
  6
CONTINUOUS
 62
     7
 10
-12.5
 20
178.125
 30
0.0
 11
-11.49494030727463
 21
181.87593383789061
 31
0.0
  0
TEXT
  5
90
  8
DIMNSIONS
 62
     7
 10
-13.99083333333334
 20
166.10416666666671
 30
0.0
 40
4.072102864583333
  1
5
 50
90.0
 41
0.7
 11
-18.06293619791667
 21
166.10416666666671
 31
0.0
 73
     3
  0
TEXT
  5
91
  8
DATA
 62
     7
 10
-19.999999999999972
 20
-46.883862726547427
 30
0.0
 40
2.4432617187500001
  1
仕様および外観は予告なく変更されることがありますので、ご了承ください。
 41
0.7
 11
-19.999999999999972
 21
-44.440601007797433
 31
0.0
 73
     3
  0
TEXT
  5
92
  8
DATA
 62
     7
 10
174.77500000000001
 20
-36.634229661487858
 30
0.0
 40
3.664892578124999
  1
WP-HDMI-DVI
 41
0.7
 11
174.77500000000001
 21
-32.969337083362859
 31
0.0
 73
     3
  0
TEXT
  5
93
  8
DATA
 62
     7
 10
174.8320650654141
 20
-24.724354409981171
 30
0.0
 40
3.664892578124999
  1
Gefen
 41
0.7
 11
174.8320650654141
 21
-21.059461831856169
 31
0.0
 73
     3
  0
TEXT
  5
94
  8
DATA
 62
     7
 10
171.84999999999999
 20
-30.257704510583881
 30
0.0
 40
2.4432617187500001
  1
HDMI-DVIウォールプレート
 41
0.7
 11
171.84999999999999
 21
-27.814442791833869
 31
0.0
 73
     3
  0
LINE
  5
95
  8
DATA
  6
CONTINUOUS
 62
     7
 10
9.375
 20
34.25
 30
0.0
 11
9.375
 21
143.25
 31
0.0
  0
ARC
  5
96
  8
DATA
  6
CONTINUOUS
 62
     7
 10
12.375
 20
34.25
 30
0.0
 40
3.0
 50
180.0
 51
270.0
  0
LINE
  5
97
  8
DATA
  6
CONTINUOUS
 62
     7
 10
77.375
 20
31.25
 30
0.0
 11
12.375
 21
31.25
 31
0.0
  0
ARC
  5
98
  8
DATA
  6
CONTINUOUS
 62
     7
 10
77.375
 20
34.249999999999993
 30
0.0
 40
2.999999999999984
 50
270.0
 51
0.0000000000002274
  0
LINE
  5
99
  8
DATA
  6
CONTINUOUS
 62
     7
 10
80.374999999999986
 20
143.25
 30
0.0
 11
80.374999999999986
 21
34.25
 31
0.0
  0
ARC
  5
9A
  8
DATA
  6
CONTINUOUS
 62
     7
 10
77.375
 20
143.25
 30
0.0
 40
3.0
 50
0.0
 51
90.0
  0
LINE
  5
9B
  8
DATA
  6
CONTINUOUS
 62
     7
 10
12.375
 20
146.25
 30
0.0
 11
77.375
 21
146.25
 31
0.0
  0
ARC
  5
9C
  8
DATA
  6
CONTINUOUS
 62
     7
 10
12.375
 20
143.25
 30
0.0
 40
3.0
 50
90.0
 51
180.0
  0
CIRCLE
  5
9D
  8
DATA
  6
CONTINUOUS
 62
     7
 10
44.874999999999993
 20
130.5
 30
0.0
 40
2.6000000000000001
  0
CIRCLE
  5
9E
  8
DATA
  6
CONTINUOUS
 62
     7
 10
44.874999999999993
 20
47.0
 30
0.0
 40
2.6000000000000001
  0
CIRCLE
  5
9F
  8
DATA
  6
CONTINUOUS
 62
     7
 10
44.874999999999993
 20
130.5
 30
0.0
 40
5.0
  0
CIRCLE
  5
A0
  8
DATA
  6
CONTINUOUS
 62
     7
 10
44.874999999999993
 20
47.0
 30
0.0
 40
5.0
  0
LINE
  5
A1
  8
DATA
  6
CONTINUOUS
 62
     7
 10
143.75
 20
34.25
 30
0.0
 11
143.75
 21
143.25
 31
0.0
  0
ARC
  5
A2
  8
DATA
  6
CONTINUOUS
 62
     7
 10
146.75
 20
34.25
 30
0.0
 40
2.999999999999984
 50
180.0
 51
270.00000000000028
  0
LINE
  5
A3
  8
DATA
  6
CONTINUOUS
 62
     7
 10
211.75
 20
31.25
 30
0.0
 11
146.75
 21
31.25
 31
0.0
  0
ARC
  5
A4
  8
DATA
  6
CONTINUOUS
 62
     7
 10
211.75
 20
34.25
 30
0.0
 40
3.0
 50
270.0
 51
0.0
  0
LINE
  5
A5
  8
DATA
  6
CONTINUOUS
 62
     7
 10
214.75
 20
143.25
 30
0.0
 11
214.75
 21
34.25
 31
0.0
  0
ARC
  5
A6
  8
DATA
  6
CONTINUOUS
 62
     7
 10
211.75
 20
143.25
 30
0.0
 40
3.0
 50
0.0
 51
90.0
  0
LINE
  5
A7
  8
DATA
  6
CONTINUOUS
 62
     7
 10
146.75
 20
146.25
 30
0.0
 11
211.75
 21
146.25
 31
0.0
  0
ARC
  5
A8
  8
DATA
  6
CONTINUOUS
 62
     7
 10
146.75
 20
143.25
 30
0.0
 40
3.0
 50
90.0
 51
180.0
  0
CIRCLE
  5
A9
  8
DATA
  6
CONTINUOUS
 62
     7
 10
179.25
 20
130.5
 30
0.0
 40
2.6000000000000081
  0
CIRCLE
  5
AA
  8
DATA
  6
CONTINUOUS
 62
     7
 10
179.25
 20
47.0
 30
0.0
 40
2.6000000000000081
  0
CIRCLE
  5
AB
  8
DATA
  6
CONTINUOUS
 62
     7
 10
179.25
 20
130.5
 30
0.0
 40
5.0
  0
CIRCLE
  5
AC
  8
DATA
  6
CONTINUOUS
 62
     7
 10
179.25
 20
47.0
 30
0.0
 40
5.0
  0
LINE
  5
AD
  8
DATA
  6
CONTINUOUS
 62
     7
 10
181.3862941517207
 20
94.882110397977584
 30
0.0
 11
181.3862941517207
 21
125.3081268966852
 31
0.0
  0
LINE
  5
AE
  8
DATA
  6
CONTINUOUS
 62
     7
 10
128.125
 20
142.80000000000001
 30
0.0
 11
128.125
 21
34.699999999999903
 31
0.0
  0
LINE
  5
AF
  8
DATA
  6
CONTINUOUS
 62
     7
 10
122.52500000000001
 20
146.25
 30
0.0
 11
122.52500000000001
 21
31.24999999999989
 31
0.0
  0
ARC
  5
B0
  8
DATA
  6
CONTINUOUS
 62
     7
 10
122.7578753095828
 20
140.35807296627931
 30
0.0
 40
5.8965273746928091
 50
24.46452065473169
 51
92.263407348013175
  0
ARC
  5
B1
  8
DATA
  6
CONTINUOUS
 62
     7
 10
122.7578753095828
 20
37.141927033720663
 30
0.0
 40
5.8965273746928073
 50
267.73659265198683
 51
335.5354793452683
  0
POLYLINE
  5
B2
  8
DATA
  6
CONTINUOUS
 62
     7
 66
     1
 10
0.0
 20
0.0
 30
0.0
  0
VERTEX
  5
8B8
  8
DATA
  6
CONTINUOUS
 62
     7
 10
43.972993547212702
 20
102.2752456515117
 30
0.0
  0
VERTEX
  5
8B9
  8
DATA
  6
CONTINUOUS
 62
     7
 10
47.972993547212774
 20
102.2752456515117
 30
0.0
  0
VERTEX
  5
8BA
  8
DATA
  6
CONTINUOUS
 62
     7
 10
47.972993547212774
 20
118.27524565151199
 30
0.0
  0
VERTEX
  5
8BB
  8
DATA
  6
CONTINUOUS
 62
     7
 10
43.972993547212702
 20
118.27524565151199
 30
0.0
  0
SEQEND
  5
8BC
  8
DATA
  6
CONTINUOUS
 62
     7
  0
LINE
  5
B9
  8
DATA
  6
CONTINUOUS
 62
     7
 10
41.972993547212759
 20
115.7752456515115
 30
0.0
 11
41.972993547212759
 21
104.77524565151199
 31
0.0
  0
ARC
  5
BA
  8
DATA
  6
CONTINUOUS
 62
     7
 10
39.824013955376202
 20
101.0060619780425
 30
0.0
 40
4.3387623639094164
 50
17.009008132096842
 51
60.310608376084232
  0
ARC
  5
BB
  8
DATA
  6
CONTINUOUS
 62
     7
 10
39.824013955376202
 20
119.54442932498129
 30
0.0
 40
4.3387623639096651
 50
299.6893916239145
 51
342.99099186790232
  0
CIRCLE
  5
BC
  8
DATA
  6
CONTINUOUS
 62
     7
 10
54.828949108580311
 20
110.28419230732869
 30
0.0
 40
1.1750000000000771
  0
POLYLINE
  5
BD
  8
DATA
  6
CONTINUOUS
 62
     7
 66
     1
 10
0.0
 20
0.0
 30
0.0
 70
     1
  0
VERTEX
  5
8BD
  8
DATA
  6
CONTINUOUS
 62
     7
 10
57.5289491085801
 20
110.28419230732869
 30
0.0
  0
VERTEX
  5
8BE
  8
DATA
  6
CONTINUOUS
 62
     7
 10
56.178949108580163
 20
112.6224608975466
 30
0.0
  0
VERTEX
  5
8BF
  8
DATA
  6
CONTINUOUS
 62
     7
 10
53.478949108580487
 20
112.6224608975466
 30
0.0
  0
VERTEX
  5
8C0
  8
DATA
  6
CONTINUOUS
 62
     7
 10
52.128949108580521
 20
110.28419230732869
 30
0.0
  0
VERTEX
  5
8C1
  8
DATA
  6
CONTINUOUS
 62
     7
 10
53.478949108580487
 20
107.9459237171106
 30
0.0
  0
VERTEX
  5
8C2
  8
DATA
  6
CONTINUOUS
 62
     7
 10
56.178949108580163
 20
107.9459237171106
 30
0.0
  0
SEQEND
  5
8C3
  8
DATA
  6
CONTINUOUS
 62
     7
  0
POLYLINE
  5
C6
  8
DATA
  6
CONTINUOUS
 62
     7
 66
     1
 10
0.0
 20
0.0
 30
0.0
 70
     1
  0
VERTEX
  5
8C4
  8
DATA
  6
CONTINUOUS
 62
     7
 10
44.375
 20
115.5951186473314
 30
0.0
  0
VERTEX
  5
8C5
  8
DATA
  6
CONTINUOUS
 62
     7
 10
45.375
 20
115.5951186473314
 30
0.0
  0
VERTEX
  5
8C6
  8
DATA
  6
CONTINUOUS
 62
     7
 10
45.375
 20
104.5951186473313
 30
0.0
  0
VERTEX
  5
8C7
  8
DATA
  6
CONTINUOUS
 62
     7
 10
44.375
 20
104.5951186473313
 30
0.0
  0
SEQEND
  5
8C8
  8
DATA
  6
CONTINUOUS
 62
     7
  0
LINE
  5
CD
  8
DATA
  6
CONTINUOUS
 62
     7
 10
133.125
 20
107.9459237171106
 30
0.0
 11
133.125
 21
112.6224608975466
 31
0.0
  0
LINE
  5
CE
  8
DATA
  6
CONTINUOUS
 62
     7
 10
128.125
 20
112.6224608975466
 30
0.0
 11
133.125
 21
112.6224608975466
 31
0.0
  0
LINE
  5
CF
  8
DATA
  6
CONTINUOUS
 62
     7
 10
128.125
 20
107.9459237171106
 30
0.0
 11
133.125
 21
107.9459237171106
 31
0.0
  0
LINE
  5
D0
  8
DATA
  6
CONTINUOUS
 62
     7
 10
133.125
 20
110.0951186473313
 30
0.0
 11
128.125
 21
110.0951186473313
 31
0.0
  0
LINE
  5
D1
  8
DATA
  6
CONTINUOUS
 62
     7
 10
101.52500000000001
 20
126.5951186473314
 30
0.0
 11
101.52500000000001
 21
117.78419230732869
 31
0.0
  0
LINE
  5
D2
  8
DATA
  6
CONTINUOUS
 62
     7
 10
101.52500000000001
 20
102.7841923073286
 30
0.0
 11
101.52500000000001
 21
93.595118647331347
 31
0.0
  0
LINE
  5
D3
  8
DATA
  6
CONTINUOUS
 62
     7
 10
122.52500000000001
 20
93.595118647331347
 30
0.0
 11
101.52500000000001
 21
93.595118647331347
 31
0.0
  0
LINE
  5
D4
  8
DATA
  6
CONTINUOUS
 62
     7
 10
101.52500000000001
 20
126.5951186473314
 30
0.0
 11
122.52500000000001
 21
126.5951186473314
 31
0.0
  0
LINE
  5
D5
  8
DATA
  6
CONTINUOUS
 62
     7
 10
92.125
 20
107.9459237171106
 30
0.0
 11
92.125
 21
112.6224608975466
 31
0.0
  0
LINE
  5
D6
  8
DATA
  6
CONTINUOUS
 62
     7
 10
97.125
 20
102.7841923073286
 30
0.0
 11
97.125
 21
117.78419230732869
 31
0.0
  0
LINE
  5
D7
  8
DATA
  6
CONTINUOUS
 62
     7
 10
97.125
 20
112.6224608975466
 30
0.0
 11
92.125
 21
112.6224608975466
 31
0.0
  0
LINE
  5
D8
  8
DATA
  6
CONTINUOUS
 62
     7
 10
97.125
 20
107.9459237171106
 30
0.0
 11
92.125
 21
107.9459237171106
 31
0.0
  0
LINE
  5
D9
  8
DATA
  6
CONTINUOUS
 62
     7
 10
109.125
 20
102.7841923073286
 30
0.0
 11
109.125
 21
117.78419230732869
 31
0.0
  0
LINE
  5
DA
  8
DATA
  6
CONTINUOUS
 62
     7
 10
97.125
 20
117.78419230732869
 30
0.0
 11
109.125
 21
117.78419230732869
 31
0.0
  0
LINE
  5
DB
  8
DATA
  6
CONTINUOUS
 62
     7
 10
97.125
 20
102.7841923073286
 30
0.0
 11
109.125
 21
102.7841923073286
 31
0.0
  0
LINE
  5
DC
  8
DATA
  6
CONTINUOUS
 62
     7
 10
104.125
 20
108.5951186473313
 30
0.0
 11
104.125
 21
111.5951186473314
 31
0.0
  0
LINE
  5
DD
  8
DATA
  6
CONTINUOUS
 62
     7
 10
104.125
 20
108.5951186473313
 30
0.0
 11
97.125
 21
108.5951186473313
 31
0.0
  0
LINE
  5
DE
  8
DATA
  6
CONTINUOUS
 62
     7
 10
97.125
 20
111.5951186473314
 30
0.0
 11
104.125
 21
111.5951186473314
 31
0.0
  0
LINE
  5
DF
  8
DATA
  6
CONTINUOUS
 62
     7
 10
113.325
 20
118.9951186473313
 30
0.0
 11
122.52500000000001
 21
118.9951186473313
 31
0.0
  0
LINE
  5
E0
  8
DATA
  6
CONTINUOUS
 62
     7
 10
113.325
 20
101.1951186473312
 30
0.0
 11
122.52500000000001
 21
101.1951186473312
 31
0.0
  0
ARC
  5
E1
  8
DATA
  6
CONTINUOUS
 62
     7
 10
113.325
 20
122.79511864733141
 30
0.0
 40
3.8000000000000229
 50
90.000000000000057
 51
270.0
  0
ARC
  5
E2
  8
DATA
  6
CONTINUOUS
 62
     7
 10
113.325
 20
97.395118647331273
 30
0.0
 40
3.799999999999994
 50
89.999999999999957
 51
270.0
  0
CIRCLE
  5
E3
  8
DATA
  6
CONTINUOUS
 62
     7
 10
113.325
 20
122.79511864733141
 30
0.0
 40
1.399999999999999
  0
CIRCLE
  5
E4
  8
DATA
  6
CONTINUOUS
 62
     7
 10
113.325
 20
97.395118647331273
 30
0.0
 40
1.399999999999999
  0
LINE
  5
E5
  8
DATA
  6
CONTINUOUS
 62
     7
 10
116.3
 20
126.5951186473314
 30
0.0
 11
116.3
 21
118.9951186473313
 31
0.0
  0
LINE
  5
E6
  8
DATA
  6
CONTINUOUS
 62
     7
 10
116.3
 20
101.1951186473312
 30
0.0
 11
116.3
 21
93.595118647331347
 31
0.0
  0
LINE
  5
E7
  8
DATA
  6
CONTINUOUS
 62
     7
 10
181.3862941517207
 20
125.3081268966852
 30
0.0
 11
182.9862941517207
 21
125.3081268966852
 31
0.0
  0
LINE
  5
E8
  8
DATA
  6
CONTINUOUS
 62
     7
 10
182.9862941517207
 20
94.882110397977584
 30
0.0
 11
182.9862941517207
 21
125.3081268966852
 31
0.0
  0
POLYLINE
  5
E9
  8
DATA
  6
CONTINUOUS
 62
     7
 66
     1
 10
0.0
 20
0.0
 30
0.0
  0
VERTEX
  5
8C9
  8
DATA
  6
CONTINUOUS
 62
     7
 10
185.9424997763121
 20
102.2752456515117
 30
0.0
  0
VERTEX
  5
8CA
  8
DATA
  6
CONTINUOUS
 62
     7
 10
189.9424997763123
 20
102.2752456515117
 30
0.0
  0
VERTEX
  5
8CB
  8
DATA
  6
CONTINUOUS
 62
     7
 10
189.9424997763123
 20
118.27524565151199
 30
0.0
  0
VERTEX
  5
8CC
  8
DATA
  6
CONTINUOUS
 62
     7
 10
185.9424997763121
 20
118.27524565151199
 30
0.0
  0
SEQEND
  5
8CD
  8
DATA
  6
CONTINUOUS
 62
     7
  0
LINE
  5
F0
  8
DATA
  6
CONTINUOUS
 62
     7
 10
183.9424997763123
 20
115.7752456515115
 30
0.0
 11
183.9424997763123
 21
104.77524565151199
 31
0.0
  0
ARC
  5
F1
  8
DATA
  6
CONTINUOUS
 62
     7
 10
181.79352018447571
 20
101.0060619780425
 30
0.0
 40
4.3387623639094164
 50
17.009008132096842
 51
60.310608376084232
  0
ARC
  5
F2
  8
DATA
  6
CONTINUOUS
 62
     7
 10
181.79352018447571
 20
119.54442932498129
 30
0.0
 40
4.3387623639096651
 50
299.6893916239145
 51
342.99099186790232
  0
CIRCLE
  5
F3
  8
DATA
  6
CONTINUOUS
 62
     7
 10
196.7984553376798
 20
110.28419230732869
 30
0.0
 40
1.1750000000000771
  0
POLYLINE
  5
F4
  8
DATA
  6
CONTINUOUS
 62
     7
 66
     1
 10
0.0
 20
0.0
 30
0.0
 70
     1
  0
VERTEX
  5
8CE
  8
DATA
  6
CONTINUOUS
 62
     7
 10
199.4984553376793
 20
110.28419230732869
 30
0.0
  0
VERTEX
  5
8CF
  8
DATA
  6
CONTINUOUS
 62
     7
 10
198.14845533767971
 20
112.6224608975466
 30
0.0
  0
VERTEX
  5
8D0
  8
DATA
  6
CONTINUOUS
 62
     7
 10
195.44845533768
 20
112.6224608975466
 30
0.0
  0
VERTEX
  5
8D1
  8
DATA
  6
CONTINUOUS
 62
     7
 10
194.09845533768001
 20
110.28419230732869
 30
0.0
  0
VERTEX
  5
8D2
  8
DATA
  6
CONTINUOUS
 62
     7
 10
195.44845533768
 20
107.9459237171106
 30
0.0
  0
VERTEX
  5
8D3
  8
DATA
  6
CONTINUOUS
 62
     7
 10
198.14845533767971
 20
107.9459237171106
 30
0.0
  0
SEQEND
  5
8D4
  8
DATA
  6
CONTINUOUS
 62
     7
  0
POLYLINE
  5
FD
  8
DATA
  6
CONTINUOUS
 62
     7
 66
     1
 10
0.0
 20
0.0
 30
0.0
 70
     1
  0
VERTEX
  5
8D5
  8
DATA
  6
CONTINUOUS
 62
     7
 10
186.34450622909941
 20
115.5951186473314
 30
0.0
  0
VERTEX
  5
8D6
  8
DATA
  6
CONTINUOUS
 62
     7
 10
187.34450622909941
 20
115.5951186473314
 30
0.0
  0
VERTEX
  5
8D7
  8
DATA
  6
CONTINUOUS
 62
     7
 10
187.34450622909941
 20
104.5951186473313
 30
0.0
  0
VERTEX
  5
8D8
  8
DATA
  6
CONTINUOUS
 62
     7
 10
186.34450622909941
 20
104.5951186473313
 30
0.0
  0
SEQEND
  5
8D9
  8
DATA
  6
CONTINUOUS
 62
     7
  0
LINE
  5
104
  8
DATA
  6
CONTINUOUS
 62
     7
 10
199.8391565104246
 20
113.2128819751029
 30
0.0
 11
199.8391565104246
 21
106.97735531955981
 31
0.0
  0
LINE
  5
105
  8
DATA
  6
CONTINUOUS
 62
     7
 10
189.9424997763123
 20
113.2128819751029
 30
0.0
 11
199.8391565104246
 21
113.2128819751029
 31
0.0
  0
LINE
  5
106
  8
DATA
  6
CONTINUOUS
 62
     7
 10
189.9424997763123
 20
106.97735531955981
 30
0.0
 11
199.8391565104246
 21
106.97735531955981
 31
0.0
  0
LINE
  5
107
  8
DATA
  6
CONTINUOUS
 62
     7
 10
181.3862941517207
 20
102.5951186473313
 30
0.0
 11
175.3862941517207
 21
102.5951186473313
 31
0.0
  0
LINE
  5
108
  8
DATA
  6
CONTINUOUS
 62
     7
 10
175.3862941517207
 20
117.5951186473314
 30
0.0
 11
181.3862941517207
 21
117.5951186473314
 31
0.0
  0
LINE
  5
109
  8
DATA
  6
CONTINUOUS
 62
     7
 10
175.3862941517207
 20
102.5951186473313
 30
0.0
 11
175.3862941517207
 21
117.5951186473314
 31
0.0
  0
LINE
  5
10A
  8
DATA
  6
CONTINUOUS
 62
     7
 10
175.3862941517207
 20
106.29511864733119
 30
0.0
 11
165.3862941517207
 21
106.29511864733119
 31
0.0
  0
LINE
  5
10B
  8
DATA
  6
CONTINUOUS
 62
     7
 10
165.3862941517207
 20
113.8951186473314
 30
0.0
 11
175.3862941517207
 21
113.8951186473314
 31
0.0
  0
LINE
  5
10C
  8
DATA
  6
CONTINUOUS
 62
     7
 10
165.3862941517207
 20
106.29511864733119
 30
0.0
 11
165.3862941517207
 21
113.8951186473314
 31
0.0
  0
ARC
  5
10D
  8
DATA
  6
CONTINUOUS
 62
     7
 10
74.4779506794887
 20
183.48628491423091
 30
0.0
 40
5.9018789872985611
 50
294.71440964256283
 51
2.318092089745674
  0
ARC
  5
10E
  8
DATA
  6
CONTINUOUS
 62
     7
 10
15.2720493205113
 20
183.48628491423091
 30
0.0
 40
5.9018789872985629
 50
177.6819079102543
 51
245.2855903574372
  0
LINE
  5
10F
  8
DATA
  6
CONTINUOUS
 62
     7
 10
12.80450000000007
 20
178.125
 30
0.0
 11
76.945500000000024
 21
178.125
 31
0.0
  0
LINE
  5
110
  8
DATA
  6
CONTINUOUS
 62
     7
 10
9.375
 20
183.72499999999999
 30
0.0
 11
80.374999999999986
 21
183.72499999999999
 31
0.0
  0
LINE
  5
111
  8
DATA
  6
CONTINUOUS
 62
     7
 10
24.869768349622859
 20
214.125
 30
0.0
 11
29.869768349622859
 21
214.125
 31
0.0
  0
LINE
  5
112
  8
DATA
  6
CONTINUOUS
 62
     7
 10
52.128949108580521
 20
173.125
 30
0.0
 11
52.128949108580521
 21
178.125
 31
0.0
  0
LINE
  5
113
  8
DATA
  6
CONTINUOUS
 62
     7
 10
57.5289491085801
 20
173.125
 30
0.0
 11
57.5289491085801
 21
178.125
 31
0.0
  0
LINE
  5
114
  8
DATA
  6
CONTINUOUS
 62
     7
 10
52.128949108580521
 20
173.125
 30
0.0
 11
57.5289491085801
 21
173.125
 31
0.0
  0
LINE
  5
115
  8
DATA
  6
CONTINUOUS
 62
     7
 10
53.478949108580487
 20
173.125
 30
0.0
 11
53.478949108580487
 21
178.125
 31
0.0
  0
LINE
  5
116
  8
DATA
  6
CONTINUOUS
 62
     7
 10
56.178949108580163
 20
173.125
 30
0.0
 11
56.178949108580163
 21
178.125
 31
0.0
  0
LINE
  5
117
  8
DATA
  6
CONTINUOUS
 62
     7
 10
29.869768349622859
 20
214.125
 30
0.0
 11
29.869768349622859
 21
209.125
 31
0.0
  0
LINE
  5
118
  8
DATA
  6
CONTINUOUS
 62
     7
 10
24.869768349622859
 20
214.125
 30
0.0
 11
24.869768349622859
 21
209.125
 31
0.0
  0
LINE
  5
119
  8
DATA
  6
CONTINUOUS
 62
     7
 10
27.369768349622859
 20
214.125
 30
0.0
 11
27.369768349622859
 21
209.125
 31
0.0
  0
LINE
  5
11A
  8
DATA
  6
CONTINUOUS
 62
     7
 10
25.969768349622871
 20
201.125
 30
0.0
 11
28.769768349622851
 21
201.125
 31
0.0
  0
LINE
  5
11B
  8
DATA
  6
CONTINUOUS
 62
     7
 10
25.969768349622871
 20
201.125
 30
0.0
 11
25.969768349622871
 21
209.125
 31
0.0
  0
LINE
  5
11C
  8
DATA
  6
CONTINUOUS
 62
     7
 10
28.769768349622851
 20
201.125
 30
0.0
 11
25.969768349622871
 21
201.125
 31
0.0
  0
LINE
  5
11D
  8
DATA
  6
CONTINUOUS
 62
     7
 10
28.769768349622851
 20
209.125
 30
0.0
 11
28.769768349622851
 21
201.125
 31
0.0
  0
LINE
  5
11E
  8
DATA
  6
CONTINUOUS
 62
     7
 10
47.972993547212774
 20
183.72499999999999
 30
0.0
 11
47.972993547212774
 21
191.125
 31
0.0
  0
LINE
  5
11F
  8
DATA
  6
CONTINUOUS
 62
     7
 10
41.972993547212759
 20
183.72499999999999
 30
0.0
 11
41.972993547212759
 21
205.9610706891244
 31
0.0
  0
LINE
  5
120
  8
DATA
  6
CONTINUOUS
 62
     7
 10
41.972993547212759
 20
191.125
 30
0.0
 11
47.972993547212774
 21
191.125
 31
0.0
  0
LINE
  5
121
  8
DATA
  6
CONTINUOUS
 62
     7
 10
40.372993547212758
 20
183.72499999999999
 30
0.0
 11
40.372993547212758
 21
209.125
 31
0.0
  0
LINE
  5
122
  8
DATA
  6
CONTINUOUS
 62
     7
 10
53.428949108580312
 20
185.125
 30
0.0
 11
56.228949108580309
 21
185.125
 31
0.0
  0
LINE
  5
123
  8
DATA
  6
CONTINUOUS
 62
     7
 10
53.428949108580312
 20
183.72499999999999
 30
0.0
 11
53.428949108580312
 21
185.125
 31
0.0
  0
LINE
  5
124
  8
DATA
  6
CONTINUOUS
 62
     7
 10
56.228949108580309
 20
185.125
 30
0.0
 11
56.228949108580309
 21
183.72499999999999
 31
0.0
  0
LINE
  5
125
  8
DATA
  6
CONTINUOUS
 62
     7
 10
40.372993547212758
 20
205.9610706891244
 30
0.0
 11
41.972993547212759
 21
205.9610706891244
 31
0.0
  0
LINE
  5
126
  8
DATA
  6
CONTINUOUS
 62
     7
 10
34.372993547212772
 20
208.625
 30
0.0
 11
34.372993547212772
 21
197.125
 31
0.0
  0
LINE
  5
127
  8
DATA
  6
CONTINUOUS
 62
     7
 10
24.869768349622859
 20
209.125
 30
0.0
 11
40.372993547212758
 21
209.125
 31
0.0
  0
LINE
  5
128
  8
DATA
  6
CONTINUOUS
 62
     7
 10
28.769768349622851
 20
208.625
 30
0.0
 11
40.372993547212758
 21
208.625
 31
0.0
  0
LINE
  5
129
  8
DATA
  6
CONTINUOUS
 62
     7
 10
34.372993547212772
 20
197.125
 30
0.0
 11
40.372993547212758
 21
197.125
 31
0.0
  0
LINE
  5
12A
  8
DATA
  6
CONTINUOUS
 62
     7
 10
36.972993547212759
 20
191.90000000000001
 30
0.0
 11
36.972993547212759
 21
183.72499999999999
 31
0.0
  0
LINE
  5
12B
  8
DATA
  6
CONTINUOUS
 62
     7
 10
37.772993547212756
 20
192.6999999999999
 30
0.0
 11
38.572993547212761
 21
192.6999999999999
 31
0.0
  0
LINE
  5
12C
  8
DATA
  6
CONTINUOUS
 62
     7
 10
37.972993547212759
 20
190.90000000000001
 30
0.0
 11
37.972993547212759
 21
183.72499999999999
 31
0.0
  0
LINE
  5
12D
  8
DATA
  6
CONTINUOUS
 62
     7
 10
38.772993547212756
 20
191.6999999999999
 30
0.0
 11
39.572993547212761
 21
191.6999999999999
 31
0.0
  0
LINE
  5
12E
  8
DATA
  6
CONTINUOUS
 62
     7
 10
40.372993547212758
 20
192.5
 30
0.0
 11
40.372993547212758
 21
196.72480034358
 31
0.0
  0
LINE
  5
12F
  8
DATA
  6
CONTINUOUS
 62
     7
 10
39.372993547212758
 20
193.5
 30
0.0
 11
39.372993547212758
 21
196.5
 31
0.0
  0
LINE
  5
130
  8
DATA
  6
CONTINUOUS
 62
     7
 10
39.372993547212758
 20
196.5
 30
0.0
 11
40.372993547212758
 21
196.5
 31
0.0
  0
ARC
  5
131
  8
DATA
  6
CONTINUOUS
 62
     7
 10
37.772993547212756
 20
191.90000000000001
 30
0.0
 40
0.7999999999999972
 50
90.0
 51
180.0
  0
ARC
  5
132
  8
DATA
  6
CONTINUOUS
 62
     7
 10
38.772993547212756
 20
190.90000000000001
 30
0.0
 40
0.7999999999999972
 50
90.0
 51
180.0
  0
ARC
  5
133
  8
DATA
  6
CONTINUOUS
 62
     7
 10
38.572993547212761
 20
193.5
 30
0.0
 40
0.7999999999999972
 50
270.0
 51
0.0
  0
ARC
  5
134
  8
DATA
  6
CONTINUOUS
 62
     7
 10
39.572993547212761
 20
192.5
 30
0.0
 40
0.7999999999999972
 50
270.0
 51
0.0
  0
LINE
  5
135
  8
DATA
  6
CONTINUOUS
 62
     7
 10
36.100000000000001
 20
193.3008147457596
 30
0.0
 11
39.347800125974672
 21
193.3008147457596
 31
0.0
  0
LINE
  5
136
  8
DATA
  6
CONTINUOUS
 62
     7
 10
36.100000000000001
 20
196.00081474575961
 30
0.0
 11
39.372993547212758
 21
196.00081474575961
 31
0.0
  0
LINE
  5
137
  8
DATA
  6
CONTINUOUS
 62
     7
 10
36.100000000000001
 20
193.3008147457596
 30
0.0
 11
36.100000000000001
 21
196.05000000000001
 31
0.0
  0
LINE
  5
138
  8
DATA
  6
CONTINUOUS
 62
     7
 10
43.16860094857411
 20
192.67540737287959
 30
0.0
 11
41.972993547212759
 21
192.67540737287959
 31
0.0
  0
LINE
  5
139
  8
DATA
  6
CONTINUOUS
 62
     7
 10
44.368600948574112
 20
195.4754073728798
 30
0.0
 11
44.368600948574112
 21
193.87540737287981
 31
0.0
  0
LINE
  5
13A
  8
DATA
  6
CONTINUOUS
 62
     7
 10
41.972993547212759
 20
196.6754073728797
 30
0.0
 11
43.16860094857411
 21
196.6754073728797
 31
0.0
  0
ARC
  5
13B
  8
DATA
  6
CONTINUOUS
 62
     7
 10
43.16860094857411
 20
195.4754073728798
 30
0.0
 40
1.2000000000000011
 50
0.0
 51
90.0
  0
ARC
  5
13C
  8
DATA
  6
CONTINUOUS
 62
     7
 10
43.16860094857411
 20
193.87540737287981
 30
0.0
 40
1.2000000000000011
 50
270.0
 51
0.0
  0
LINE
  5
13D
  8
DATA
  6
CONTINUOUS
 62
     7
 10
149.75
 20
143.25
 30
0.0
 11
208.75
 21
143.25
 31
0.0
  0
LINE
  5
13E
  8
DATA
  6
CONTINUOUS
 62
     7
 10
208.75
 20
34.25
 30
0.0
 11
149.75
 21
34.25
 31
0.0
  0
LINE
  5
13F
  8
DATA
  6
CONTINUOUS
 62
     7
 10
146.75
 20
37.25
 30
0.0
 11
146.75
 21
140.25
 31
0.0
  0
LINE
  5
140
  8
DATA
  6
CONTINUOUS
 62
     7
 10
211.75
 20
140.25
 30
0.0
 11
211.75
 21
37.25
 31
0.0
  0
ARC
  5
141
  8
DATA
  6
CONTINUOUS
 62
     7
 10
149.75
 20
140.25
 30
0.0
 40
3.0
 50
90.0
 51
180.0
  0
ARC
  5
142
  8
DATA
  6
CONTINUOUS
 62
     7
 10
208.75
 20
140.25
 30
0.0
 40
3.0
 50
0.0
 51
90.0
  0
ARC
  5
143
  8
DATA
  6
CONTINUOUS
 62
     7
 10
149.75
 20
37.25
 30
0.0
 40
3.0
 50
180.0
 51
270.0
  0
ARC
  5
144
  8
DATA
  6
CONTINUOUS
 62
     7
 10
208.75
 20
37.25
 30
0.0
 40
3.0
 50
270.0
 51
0.0
  0
CIRCLE
  5
145
  8
DATA
  6
CONTINUOUS
 62
     7
 10
168.03856003922411
 20
110.0951186473313
 30
0.0
 40
1.5
  0
LINE
  5
146
  8
DATA
  6
CONTINUOUS
 62
     7
 10
181.3862941517207
 20
94.882110397977584
 30
0.0
 11
182.9862941517207
 21
94.882110397977584
 31
0.0
  0
CIRCLE
  5
147
  8
DATA
  6
CONTINUOUS
 62
     7
 10
44.87856871036432
 20
89.772296749768429
 30
0.0
 40
1.1750000000000951
  0
POLYLINE
  5
148
  8
DATA
  6
CONTINUOUS
 62
     7
 66
     1
 10
0.0
 20
0.0
 30
0.0
 70
     1
  0
VERTEX
  5
8DA
  8
DATA
  6
CONTINUOUS
 62
     7
 10
47.578568710364308
 20
89.772296749768429
 30
0.0
  0
VERTEX
  5
8DB
  8
DATA
  6
CONTINUOUS
 62
     7
 10
46.228568710364307
 20
92.110565339986309
 30
0.0
  0
VERTEX
  5
8DC
  8
DATA
  6
CONTINUOUS
 62
     7
 10
43.528568710364333
 20
92.110565339986309
 30
0.0
  0
VERTEX
  5
8DD
  8
DATA
  6
CONTINUOUS
 62
     7
 10
42.17856871036436
 20
89.772296749768429
 30
0.0
  0
VERTEX
  5
8DE
  8
DATA
  6
CONTINUOUS
 62
     7
 10
43.528568710364333
 20
87.434028159550223
 30
0.0
  0
VERTEX
  5
8DF
  8
DATA
  6
CONTINUOUS
 62
     7
 10
46.228568710364307
 20
87.434028159550223
 30
0.0
  0
SEQEND
  5
8E0
  8
DATA
  6
CONTINUOUS
 62
     7
  0
CIRCLE
  5
151
  8
DATA
  6
CONTINUOUS
 62
     7
 10
44.87856871036432
 20
57.272296749768039
 30
0.0
 40
1.1750000000000671
  0
POLYLINE
  5
152
  8
DATA
  6
CONTINUOUS
 62
     7
 66
     1
 10
0.0
 20
0.0
 30
0.0
 70
     1
  0
VERTEX
  5
8E1
  8
DATA
  6
CONTINUOUS
 62
     7
 10
47.578568710364308
 20
57.272296749768039
 30
0.0
  0
VERTEX
  5
8E2
  8
DATA
  6
CONTINUOUS
 62
     7
 10
46.228568710364307
 20
59.610565339985968
 30
0.0
  0
VERTEX
  5
8E3
  8
DATA
  6
CONTINUOUS
 62
     7
 10
43.528568710364333
 20
59.610565339985968
 30
0.0
  0
VERTEX
  5
8E4
  8
DATA
  6
CONTINUOUS
 62
     7
 10
42.17856871036436
 20
57.272296749768039
 30
0.0
  0
VERTEX
  5
8E5
  8
DATA
  6
CONTINUOUS
 62
     7
 10
43.528568710364333
 20
54.93402815955001
 30
0.0
  0
VERTEX
  5
8E6
  8
DATA
  6
CONTINUOUS
 62
     7
 10
46.228568710364307
 20
54.93402815955001
 30
0.0
  0
SEQEND
  5
8E7
  8
DATA
  6
CONTINUOUS
 62
     7
  0
LINE
  5
15B
  8
DATA
  6
CONTINUOUS
 62
     7
 10
48.803568710364331
 20
84.472201636959724
 30
0.0
 11
48.803568710364331
 21
62.572391862576211
 31
0.0
  0
LINE
  5
15C
  8
DATA
  6
CONTINUOUS
 62
     7
 10
40.953568710364323
 20
63.131309060028492
 30
0.0
 11
40.953568710364323
 21
83.913284439507379
 31
0.0
  0
POLYLINE
  5
15D
  8
DATA
  6
CONTINUOUS
 62
     7
 66
     1
 10
0.0
 20
0.0
 30
0.0
 70
     1
  0
VERTEX
  5
8E8
  8
DATA
  6
CONTINUOUS
 62
     7
 10
44.113568710364333
 20
84.522362920947216
 30
0.0
  0
VERTEX
  5
8E9
  8
DATA
  6
CONTINUOUS
 62
     7
 10
45.643568710364313
 20
84.522362920947216
 30
0.0
  0
VERTEX
  5
8EA
  8
DATA
  6
CONTINUOUS
 62
     7
 10
45.643568710364313
 20
82.992362920947187
 30
0.0
  0
VERTEX
  5
8EB
  8
DATA
  6
CONTINUOUS
 62
     7
 10
44.113568710364333
 20
82.992362920947187
 30
0.0
  0
SEQEND
  5
8EC
  8
DATA
  6
CONTINUOUS
 62
     7
  0
POLYLINE
  5
164
  8
DATA
  6
CONTINUOUS
 62
     7
 66
     1
 10
0.0
 20
0.0
 30
0.0
 70
     1
  0
VERTEX
  5
8ED
  8
DATA
  6
CONTINUOUS
 62
     7
 10
44.113568710364333
 20
82.522362920947188
 30
0.0
  0
VERTEX
  5
8EE
  8
DATA
  6
CONTINUOUS
 62
     7
 10
45.643568710364313
 20
82.522362920947188
 30
0.0
  0
VERTEX
  5
8EF
  8
DATA
  6
CONTINUOUS
 62
     7
 10
45.643568710364313
 20
80.992362920947215
 30
0.0
  0
VERTEX
  5
8F0
  8
DATA
  6
CONTINUOUS
 62
     7
 10
44.113568710364333
 20
80.992362920947215
 30
0.0
  0
SEQEND
  5
8F1
  8
DATA
  6
CONTINUOUS
 62
     7
  0
POLYLINE
  5
16B
  8
DATA
  6
CONTINUOUS
 62
     7
 66
     1
 10
0.0
 20
0.0
 30
0.0
 70
     1
  0
VERTEX
  5
8F2
  8
DATA
  6
CONTINUOUS
 62
     7
 10
44.113568710364333
 20
80.522362920947216
 30
0.0
  0
VERTEX
  5
8F3
  8
DATA
  6
CONTINUOUS
 62
     7
 10
45.643568710364313
 20
80.522362920947216
 30
0.0
  0
VERTEX
  5
8F4
  8
DATA
  6
CONTINUOUS
 62
     7
 10
45.643568710364313
 20
78.992362920947215
 30
0.0
  0
VERTEX
  5
8F5
  8
DATA
  6
CONTINUOUS
 62
     7
 10
44.113568710364333
 20
78.992362920947215
 30
0.0
  0
SEQEND
  5
8F6
  8
DATA
  6
CONTINUOUS
 62
     7
  0
POLYLINE
  5
172
  8
DATA
  6
CONTINUOUS
 62
     7
 66
     1
 10
0.0
 20
0.0
 30
0.0
 70
     1
  0
VERTEX
  5
8F7
  8
DATA
  6
CONTINUOUS
 62
     7
 10
44.113568710364333
 20
78.522362920947216
 30
0.0
  0
VERTEX
  5
8F8
  8
DATA
  6
CONTINUOUS
 62
     7
 10
45.643568710364313
 20
78.522362920947216
 30
0.0
  0
VERTEX
  5
8F9
  8
DATA
  6
CONTINUOUS
 62
     7
 10
45.643568710364313
 20
76.992362920947215
 30
0.0
  0
VERTEX
  5
8FA
  8
DATA
  6
CONTINUOUS
 62
     7
 10
44.113568710364333
 20
76.992362920947215
 30
0.0
  0
SEQEND
  5
8FB
  8
DATA
  6
CONTINUOUS
 62
     7
  0
POLYLINE
  5
179
  8
DATA
  6
CONTINUOUS
 62
     7
 66
     1
 10
0.0
 20
0.0
 30
0.0
 70
     1
  0
VERTEX
  5
8FC
  8
DATA
  6
CONTINUOUS
 62
     7
 10
44.113568710364333
 20
76.522362920947231
 30
0.0
  0
VERTEX
  5
8FD
  8
DATA
  6
CONTINUOUS
 62
     7
 10
45.643568710364313
 20
76.522362920947231
 30
0.0
  0
VERTEX
  5
8FE
  8
DATA
  6
CONTINUOUS
 62
     7
 10
45.643568710364313
 20
74.992362920947286
 30
0.0
  0
VERTEX
  5
8FF
  8
DATA
  6
CONTINUOUS
 62
     7
 10
44.113568710364333
 20
74.992362920947286
 30
0.0
  0
SEQEND
  5
900
  8
DATA
  6
CONTINUOUS
 62
     7
  0
POLYLINE
  5
180
  8
DATA
  6
CONTINUOUS
 62
     7
 66
     1
 10
0.0
 20
0.0
 30
0.0
 70
     1
  0
VERTEX
  5
901
  8
DATA
  6
CONTINUOUS
 62
     7
 10
44.113568710364333
 20
74.522362920947259
 30
0.0
  0
VERTEX
  5
902
  8
DATA
  6
CONTINUOUS
 62
     7
 10
45.643568710364313
 20
74.522362920947259
 30
0.0
  0
VERTEX
  5
903
  8
DATA
  6
CONTINUOUS
 62
     7
 10
45.643568710364313
 20
72.992362920947286
 30
0.0
  0
VERTEX
  5
904
  8
DATA
  6
CONTINUOUS
 62
     7
 10
44.113568710364333
 20
72.992362920947286
 30
0.0
  0
SEQEND
  5
905
  8
DATA
  6
CONTINUOUS
 62
     7
  0
POLYLINE
  5
187
  8
DATA
  6
CONTINUOUS
 62
     7
 66
     1
 10
0.0
 20
0.0
 30
0.0
 70
     1
  0
VERTEX
  5
906
  8
DATA
  6
CONTINUOUS
 62
     7
 10
44.113568710364333
 20
72.522362920947259
 30
0.0
  0
VERTEX
  5
907
  8
DATA
  6
CONTINUOUS
 62
     7
 10
45.643568710364313
 20
72.522362920947259
 30
0.0
  0
VERTEX
  5
908
  8
DATA
  6
CONTINUOUS
 62
     7
 10
45.643568710364313
 20
70.992362920947301
 30
0.0
  0
VERTEX
  5
909
  8
DATA
  6
CONTINUOUS
 62
     7
 10
44.113568710364333
 20
70.992362920947301
 30
0.0
  0
SEQEND
  5
90A
  8
DATA
  6
CONTINUOUS
 62
     7
  0
POLYLINE
  5
18E
  8
DATA
  6
CONTINUOUS
 62
     7
 66
     1
 10
0.0
 20
0.0
 30
0.0
 70
     1
  0
VERTEX
  5
90B
  8
DATA
  6
CONTINUOUS
 62
     7
 10
44.113568710364333
 20
70.522362920947288
 30
0.0
  0
VERTEX
  5
90C
  8
DATA
  6
CONTINUOUS
 62
     7
 10
45.643568710364313
 20
70.522362920947288
 30
0.0
  0
VERTEX
  5
90D
  8
DATA
  6
CONTINUOUS
 62
     7
 10
45.643568710364313
 20
68.992362920947286
 30
0.0
  0
VERTEX
  5
90E
  8
DATA
  6
CONTINUOUS
 62
     7
 10
44.113568710364333
 20
68.992362920947286
 30
0.0
  0
SEQEND
  5
90F
  8
DATA
  6
CONTINUOUS
 62
     7
  0
POLYLINE
  5
195
  8
DATA
  6
CONTINUOUS
 62
     7
 66
     1
 10
0.0
 20
0.0
 30
0.0
 70
     1
  0
VERTEX
  5
910
  8
DATA
  6
CONTINUOUS
 62
     7
 10
46.113568710364333
 20
84.522362920947216
 30
0.0
  0
VERTEX
  5
911
  8
DATA
  6
CONTINUOUS
 62
     7
 10
47.643568710364313
 20
84.522362920947216
 30
0.0
  0
VERTEX
  5
912
  8
DATA
  6
CONTINUOUS
 62
     7
 10
47.643568710364313
 20
82.992362920947187
 30
0.0
  0
VERTEX
  5
913
  8
DATA
  6
CONTINUOUS
 62
     7
 10
46.113568710364333
 20
82.992362920947187
 30
0.0
  0
SEQEND
  5
914
  8
DATA
  6
CONTINUOUS
 62
     7
  0
POLYLINE
  5
19C
  8
DATA
  6
CONTINUOUS
 62
     7
 66
     1
 10
0.0
 20
0.0
 30
0.0
 70
     1
  0
VERTEX
  5
915
  8
DATA
  6
CONTINUOUS
 62
     7
 10
46.113568710364333
 20
82.522362920947188
 30
0.0
  0
VERTEX
  5
916
  8
DATA
  6
CONTINUOUS
 62
     7
 10
47.643568710364313
 20
82.522362920947188
 30
0.0
  0
VERTEX
  5
917
  8
DATA
  6
CONTINUOUS
 62
     7
 10
47.643568710364313
 20
80.992362920947215
 30
0.0
  0
VERTEX
  5
918
  8
DATA
  6
CONTINUOUS
 62
     7
 10
46.113568710364333
 20
80.992362920947215
 30
0.0
  0
SEQEND
  5
919
  8
DATA
  6
CONTINUOUS
 62
     7
  0
POLYLINE
  5
1A3
  8
DATA
  6
CONTINUOUS
 62
     7
 66
     1
 10
0.0
 20
0.0
 30
0.0
 70
     1
  0
VERTEX
  5
91A
  8
DATA
  6
CONTINUOUS
 62
     7
 10
46.113568710364333
 20
80.522362920947216
 30
0.0
  0
VERTEX
  5
91B
  8
DATA
  6
CONTINUOUS
 62
     7
 10
47.643568710364313
 20
80.522362920947216
 30
0.0
  0
VERTEX
  5
91C
  8
DATA
  6
CONTINUOUS
 62
     7
 10
47.643568710364313
 20
78.992362920947215
 30
0.0
  0
VERTEX
  5
91D
  8
DATA
  6
CONTINUOUS
 62
     7
 10
46.113568710364333
 20
78.992362920947215
 30
0.0
  0
SEQEND
  5
91E
  8
DATA
  6
CONTINUOUS
 62
     7
  0
POLYLINE
  5
1AA
  8
DATA
  6
CONTINUOUS
 62
     7
 66
     1
 10
0.0
 20
0.0
 30
0.0
 70
     1
  0
VERTEX
  5
91F
  8
DATA
  6
CONTINUOUS
 62
     7
 10
46.113568710364333
 20
78.522362920947216
 30
0.0
  0
VERTEX
  5
920
  8
DATA
  6
CONTINUOUS
 62
     7
 10
47.643568710364313
 20
78.522362920947216
 30
0.0
  0
VERTEX
  5
921
  8
DATA
  6
CONTINUOUS
 62
     7
 10
47.643568710364313
 20
76.992362920947215
 30
0.0
  0
VERTEX
  5
922
  8
DATA
  6
CONTINUOUS
 62
     7
 10
46.113568710364333
 20
76.992362920947215
 30
0.0
  0
SEQEND
  5
923
  8
DATA
  6
CONTINUOUS
 62
     7
  0
POLYLINE
  5
1B1
  8
DATA
  6
CONTINUOUS
 62
     7
 66
     1
 10
0.0
 20
0.0
 30
0.0
 70
     1
  0
VERTEX
  5
924
  8
DATA
  6
CONTINUOUS
 62
     7
 10
46.113568710364333
 20
76.522362920947231
 30
0.0
  0
VERTEX
  5
925
  8
DATA
  6
CONTINUOUS
 62
     7
 10
47.643568710364313
 20
76.522362920947231
 30
0.0
  0
VERTEX
  5
926
  8
DATA
  6
CONTINUOUS
 62
     7
 10
47.643568710364313
 20
74.992362920947286
 30
0.0
  0
VERTEX
  5
927
  8
DATA
  6
CONTINUOUS
 62
     7
 10
46.113568710364333
 20
74.992362920947286
 30
0.0
  0
SEQEND
  5
928
  8
DATA
  6
CONTINUOUS
 62
     7
  0
POLYLINE
  5
1B8
  8
DATA
  6
CONTINUOUS
 62
     7
 66
     1
 10
0.0
 20
0.0
 30
0.0
 70
     1
  0
VERTEX
  5
929
  8
DATA
  6
CONTINUOUS
 62
     7
 10
46.113568710364333
 20
74.522362920947259
 30
0.0
  0
VERTEX
  5
92A
  8
DATA
  6
CONTINUOUS
 62
     7
 10
47.643568710364313
 20
74.522362920947259
 30
0.0
  0
VERTEX
  5
92B
  8
DATA
  6
CONTINUOUS
 62
     7
 10
47.643568710364313
 20
72.992362920947286
 30
0.0
  0
VERTEX
  5
92C
  8
DATA
  6
CONTINUOUS
 62
     7
 10
46.113568710364333
 20
72.992362920947286
 30
0.0
  0
SEQEND
  5
92D
  8
DATA
  6
CONTINUOUS
 62
     7
  0
POLYLINE
  5
1BF
  8
DATA
  6
CONTINUOUS
 62
     7
 66
     1
 10
0.0
 20
0.0
 30
0.0
 70
     1
  0
VERTEX
  5
92E
  8
DATA
  6
CONTINUOUS
 62
     7
 10
46.113568710364333
 20
72.522362920947259
 30
0.0
  0
VERTEX
  5
92F
  8
DATA
  6
CONTINUOUS
 62
     7
 10
47.643568710364313
 20
72.522362920947259
 30
0.0
  0
VERTEX
  5
930
  8
DATA
  6
CONTINUOUS
 62
     7
 10
47.643568710364313
 20
70.992362920947301
 30
0.0
  0
VERTEX
  5
931
  8
DATA
  6
CONTINUOUS
 62
     7
 10
46.113568710364333
 20
70.992362920947301
 30
0.0
  0
SEQEND
  5
932
  8
DATA
  6
CONTINUOUS
 62
     7
  0
POLYLINE
  5
1C6
  8
DATA
  6
CONTINUOUS
 62
     7
 66
     1
 10
0.0
 20
0.0
 30
0.0
 70
     1
  0
VERTEX
  5
933
  8
DATA
  6
CONTINUOUS
 62
     7
 10
46.113568710364333
 20
70.522362920947288
 30
0.0
  0
VERTEX
  5
934
  8
DATA
  6
CONTINUOUS
 62
     7
 10
47.643568710364313
 20
70.522362920947288
 30
0.0
  0
VERTEX
  5
935
  8
DATA
  6
CONTINUOUS
 62
     7
 10
47.643568710364313
 20
68.992362920947286
 30
0.0
  0
VERTEX
  5
936
  8
DATA
  6
CONTINUOUS
 62
     7
 10
46.113568710364333
 20
68.992362920947286
 30
0.0
  0
SEQEND
  5
937
  8
DATA
  6
CONTINUOUS
 62
     7
  0
POLYLINE
  5
1CD
  8
DATA
  6
CONTINUOUS
 62
     7
 66
     1
 10
0.0
 20
0.0
 30
0.0
 70
     1
  0
VERTEX
  5
938
  8
DATA
  6
CONTINUOUS
 62
     7
 10
42.113568710364312
 20
84.522362920947216
 30
0.0
  0
VERTEX
  5
939
  8
DATA
  6
CONTINUOUS
 62
     7
 10
43.643568710364313
 20
84.522362920947216
 30
0.0
  0
VERTEX
  5
93A
  8
DATA
  6
CONTINUOUS
 62
     7
 10
43.643568710364313
 20
82.992362920947187
 30
0.0
  0
VERTEX
  5
93B
  8
DATA
  6
CONTINUOUS
 62
     7
 10
42.113568710364312
 20
82.992362920947187
 30
0.0
  0
SEQEND
  5
93C
  8
DATA
  6
CONTINUOUS
 62
     7
  0
POLYLINE
  5
1D4
  8
DATA
  6
CONTINUOUS
 62
     7
 66
     1
 10
0.0
 20
0.0
 30
0.0
 70
     1
  0
VERTEX
  5
93D
  8
DATA
  6
CONTINUOUS
 62
     7
 10
42.113568710364312
 20
82.522362920947188
 30
0.0
  0
VERTEX
  5
93E
  8
DATA
  6
CONTINUOUS
 62
     7
 10
43.643568710364313
 20
82.522362920947188
 30
0.0
  0
VERTEX
  5
93F
  8
DATA
  6
CONTINUOUS
 62
     7
 10
43.643568710364313
 20
80.992362920947215
 30
0.0
  0
VERTEX
  5
940
  8
DATA
  6
CONTINUOUS
 62
     7
 10
42.113568710364312
 20
80.992362920947215
 30
0.0
  0
SEQEND
  5
941
  8
DATA
  6
CONTINUOUS
 62
     7
  0
POLYLINE
  5
1DB
  8
DATA
  6
CONTINUOUS
 62
     7
 66
     1
 10
0.0
 20
0.0
 30
0.0
 70
     1
  0
VERTEX
  5
942
  8
DATA
  6
CONTINUOUS
 62
     7
 10
42.113568710364312
 20
80.522362920947216
 30
0.0
  0
VERTEX
  5
943
  8
DATA
  6
CONTINUOUS
 62
     7
 10
43.643568710364313
 20
80.522362920947216
 30
0.0
  0
VERTEX
  5
944
  8
DATA
  6
CONTINUOUS
 62
     7
 10
43.643568710364313
 20
78.992362920947215
 30
0.0
  0
VERTEX
  5
945
  8
DATA
  6
CONTINUOUS
 62
     7
 10
42.113568710364312
 20
78.992362920947215
 30
0.0
  0
SEQEND
  5
946
  8
DATA
  6
CONTINUOUS
 62
     7
  0
POLYLINE
  5
1E2
  8
DATA
  6
CONTINUOUS
 62
     7
 66
     1
 10
0.0
 20
0.0
 30
0.0
 70
     1
  0
VERTEX
  5
947
  8
DATA
  6
CONTINUOUS
 62
     7
 10
42.113568710364312
 20
78.522362920947216
 30
0.0
  0
VERTEX
  5
948
  8
DATA
  6
CONTINUOUS
 62
     7
 10
43.643568710364313
 20
78.522362920947216
 30
0.0
  0
VERTEX
  5
949
  8
DATA
  6
CONTINUOUS
 62
     7
 10
43.643568710364313
 20
76.992362920947215
 30
0.0
  0
VERTEX
  5
94A
  8
DATA
  6
CONTINUOUS
 62
     7
 10
42.113568710364312
 20
76.992362920947215
 30
0.0
  0
SEQEND
  5
94B
  8
DATA
  6
CONTINUOUS
 62
     7
  0
POLYLINE
  5
1E9
  8
DATA
  6
CONTINUOUS
 62
     7
 66
     1
 10
0.0
 20
0.0
 30
0.0
 70
     1
  0
VERTEX
  5
94C
  8
DATA
  6
CONTINUOUS
 62
     7
 10
42.113568710364312
 20
76.522362920947231
 30
0.0
  0
VERTEX
  5
94D
  8
DATA
  6
CONTINUOUS
 62
     7
 10
43.643568710364313
 20
76.522362920947231
 30
0.0
  0
VERTEX
  5
94E
  8
DATA
  6
CONTINUOUS
 62
     7
 10
43.643568710364313
 20
74.992362920947286
 30
0.0
  0
VERTEX
  5
94F
  8
DATA
  6
CONTINUOUS
 62
     7
 10
42.113568710364312
 20
74.992362920947286
 30
0.0
  0
SEQEND
  5
950
  8
DATA
  6
CONTINUOUS
 62
     7
  0
POLYLINE
  5
1F0
  8
DATA
  6
CONTINUOUS
 62
     7
 66
     1
 10
0.0
 20
0.0
 30
0.0
 70
     1
  0
VERTEX
  5
951
  8
DATA
  6
CONTINUOUS
 62
     7
 10
42.113568710364312
 20
74.522362920947259
 30
0.0
  0
VERTEX
  5
952
  8
DATA
  6
CONTINUOUS
 62
     7
 10
43.643568710364313
 20
74.522362920947259
 30
0.0
  0
VERTEX
  5
953
  8
DATA
  6
CONTINUOUS
 62
     7
 10
43.643568710364313
 20
72.992362920947286
 30
0.0
  0
VERTEX
  5
954
  8
DATA
  6
CONTINUOUS
 62
     7
 10
42.113568710364312
 20
72.992362920947286
 30
0.0
  0
SEQEND
  5
955
  8
DATA
  6
CONTINUOUS
 62
     7
  0
POLYLINE
  5
1F7
  8
DATA
  6
CONTINUOUS
 62
     7
 66
     1
 10
0.0
 20
0.0
 30
0.0
 70
     1
  0
VERTEX
  5
956
  8
DATA
  6
CONTINUOUS
 62
     7
 10
42.113568710364312
 20
72.522362920947259
 30
0.0
  0
VERTEX
  5
957
  8
DATA
  6
CONTINUOUS
 62
     7
 10
43.643568710364313
 20
72.522362920947259
 30
0.0
  0
VERTEX
  5
958
  8
DATA
  6
CONTINUOUS
 62
     7
 10
43.643568710364313
 20
70.992362920947301
 30
0.0
  0
VERTEX
  5
959
  8
DATA
  6
CONTINUOUS
 62
     7
 10
42.113568710364312
 20
70.992362920947301
 30
0.0
  0
SEQEND
  5
95A
  8
DATA
  6
CONTINUOUS
 62
     7
  0
POLYLINE
  5
1FE
  8
DATA
  6
CONTINUOUS
 62
     7
 66
     1
 10
0.0
 20
0.0
 30
0.0
 70
     1
  0
VERTEX
  5
95B
  8
DATA
  6
CONTINUOUS
 62
     7
 10
42.113568710364312
 20
70.522362920947288
 30
0.0
  0
VERTEX
  5
95C
  8
DATA
  6
CONTINUOUS
 62
     7
 10
43.643568710364313
 20
70.522362920947288
 30
0.0
  0
VERTEX
  5
95D
  8
DATA
  6
CONTINUOUS
 62
     7
 10
43.643568710364313
 20
68.992362920947286
 30
0.0
  0
VERTEX
  5
95E
  8
DATA
  6
CONTINUOUS
 62
     7
 10
42.113568710364312
 20
68.992362920947286
 30
0.0
  0
SEQEND
  5
95F
  8
DATA
  6
CONTINUOUS
 62
     7
  0
POLYLINE
  5
205
  8
DATA
  6
CONTINUOUS
 62
     7
 66
     1
 10
0.0
 20
0.0
 30
0.0
  0
VERTEX
  5
960
  8
DATA
  6
CONTINUOUS
 62
     7
 10
45.278568710364333
 20
64.972296749767892
 30
0.0
  0
VERTEX
  5
961
  8
DATA
  6
CONTINUOUS
 62
     7
 10
45.278568710364333
 20
62.872296749767891
 30
0.0
  0
VERTEX
  5
962
  8
DATA
  6
CONTINUOUS
 62
     7
 10
44.478568710364321
 20
62.872296749767891
 30
0.0
  0
VERTEX
  5
963
  8
DATA
  6
CONTINUOUS
 62
     7
 10
44.478568710364321
 20
64.972296749767892
 30
0.0
  0
SEQEND
  5
964
  8
DATA
  6
CONTINUOUS
 62
     7
  0
POLYLINE
  5
20C
  8
DATA
  6
CONTINUOUS
 62
     7
 66
     1
 10
0.0
 20
0.0
 30
0.0
  0
VERTEX
  5
965
  8
DATA
  6
CONTINUOUS
 62
     7
 10
44.478568710364321
 20
65.772296749767889
 30
0.0
  0
VERTEX
  5
966
  8
DATA
  6
CONTINUOUS
 62
     7
 10
44.478568710364321
 20
67.872296749767884
 30
0.0
  0
VERTEX
  5
967
  8
DATA
  6
CONTINUOUS
 62
     7
 10
45.278568710364333
 20
67.872296749767884
 30
0.0
  0
VERTEX
  5
968
  8
DATA
  6
CONTINUOUS
 62
     7
 10
45.278568710364333
 20
65.772296749767889
 30
0.0
  0
SEQEND
  5
969
  8
DATA
  6
CONTINUOUS
 62
     7
  0
POLYLINE
  5
213
  8
DATA
  6
CONTINUOUS
 62
     7
 66
     1
 10
0.0
 20
0.0
 30
0.0
  0
VERTEX
  5
96A
  8
DATA
  6
CONTINUOUS
 62
     7
 10
44.478568710364321
 20
64.972296749767892
 30
0.0
  0
VERTEX
  5
96B
  8
DATA
  6
CONTINUOUS
 62
     7
 10
42.37856871036432
 20
64.972296749767892
 30
0.0
  0
VERTEX
  5
96C
  8
DATA
  6
CONTINUOUS
 62
     7
 10
42.37856871036432
 20
65.772296749767889
 30
0.0
  0
VERTEX
  5
96D
  8
DATA
  6
CONTINUOUS
 62
     7
 10
44.478568710364321
 20
65.772296749767889
 30
0.0
  0
SEQEND
  5
96E
  8
DATA
  6
CONTINUOUS
 62
     7
  0
POLYLINE
  5
21A
  8
DATA
  6
CONTINUOUS
 62
     7
 66
     1
 10
0.0
 20
0.0
 30
0.0
  0
VERTEX
  5
96F
  8
DATA
  6
CONTINUOUS
 62
     7
 10
45.278568710364333
 20
65.772296749767889
 30
0.0
  0
VERTEX
  5
970
  8
DATA
  6
CONTINUOUS
 62
     7
 10
47.37856871036432
 20
65.772296749767889
 30
0.0
  0
VERTEX
  5
971
  8
DATA
  6
CONTINUOUS
 62
     7
 10
47.37856871036432
 20
64.972296749767892
 30
0.0
  0
VERTEX
  5
972
  8
DATA
  6
CONTINUOUS
 62
     7
 10
45.278568710364333
 20
64.972296749767892
 30
0.0
  0
SEQEND
  5
973
  8
DATA
  6
CONTINUOUS
 62
     7
  0
POLYLINE
  5
221
  8
DATA
  6
CONTINUOUS
 62
     7
 66
     1
 10
0.0
 20
0.0
 30
0.0
 70
     1
  0
VERTEX
  5
974
  8
DATA
  6
CONTINUOUS
 62
     7
 10
45.637996521014237
 20
67.23258118023962
 30
0.0
  0
VERTEX
  5
975
  8
DATA
  6
CONTINUOUS
 62
     7
 10
46.637996521014237
 20
67.23258118023962
 30
0.0
  0
VERTEX
  5
976
  8
DATA
  6
CONTINUOUS
 62
     7
 10
46.637996521014237
 20
66.23258118023962
 30
0.0
  0
VERTEX
  5
977
  8
DATA
  6
CONTINUOUS
 62
     7
 10
45.637996521014237
 20
66.23258118023962
 30
0.0
  0
SEQEND
  5
978
  8
DATA
  6
CONTINUOUS
 62
     7
  0
POLYLINE
  5
228
  8
DATA
  6
CONTINUOUS
 62
     7
 66
     1
 10
0.0
 20
0.0
 30
0.0
 70
     1
  0
VERTEX
  5
979
  8
DATA
  6
CONTINUOUS
 62
     7
 10
45.637996521014237
 20
64.512012319296176
 30
0.0
  0
VERTEX
  5
97A
  8
DATA
  6
CONTINUOUS
 62
     7
 10
46.637996521014237
 20
64.512012319296176
 30
0.0
  0
VERTEX
  5
97B
  8
DATA
  6
CONTINUOUS
 62
     7
 10
46.637996521014237
 20
63.512012319296183
 30
0.0
  0
VERTEX
  5
97C
  8
DATA
  6
CONTINUOUS
 62
     7
 10
45.637996521014237
 20
63.512012319296183
 30
0.0
  0
SEQEND
  5
97D
  8
DATA
  6
CONTINUOUS
 62
     7
  0
POLYLINE
  5
22F
  8
DATA
  6
CONTINUOUS
 62
     7
 66
     1
 10
0.0
 20
0.0
 30
0.0
 70
     1
  0
VERTEX
  5
97E
  8
DATA
  6
CONTINUOUS
 62
     7
 10
43.119140899714402
 20
67.23258118023962
 30
0.0
  0
VERTEX
  5
97F
  8
DATA
  6
CONTINUOUS
 62
     7
 10
44.119140899714402
 20
67.23258118023962
 30
0.0
  0
VERTEX
  5
980
  8
DATA
  6
CONTINUOUS
 62
     7
 10
44.119140899714402
 20
66.23258118023962
 30
0.0
  0
VERTEX
  5
981
  8
DATA
  6
CONTINUOUS
 62
     7
 10
43.119140899714402
 20
66.23258118023962
 30
0.0
  0
SEQEND
  5
982
  8
DATA
  6
CONTINUOUS
 62
     7
  0
POLYLINE
  5
236
  8
DATA
  6
CONTINUOUS
 62
     7
 66
     1
 10
0.0
 20
0.0
 30
0.0
 70
     1
  0
VERTEX
  5
983
  8
DATA
  6
CONTINUOUS
 62
     7
 10
43.119140899714402
 20
64.512012319296176
 30
0.0
  0
VERTEX
  5
984
  8
DATA
  6
CONTINUOUS
 62
     7
 10
44.119140899714402
 20
64.512012319296176
 30
0.0
  0
VERTEX
  5
985
  8
DATA
  6
CONTINUOUS
 62
     7
 10
44.119140899714402
 20
63.512012319296183
 30
0.0
  0
VERTEX
  5
986
  8
DATA
  6
CONTINUOUS
 62
     7
 10
43.119140899714402
 20
63.512012319296183
 30
0.0
  0
SEQEND
  5
987
  8
DATA
  6
CONTINUOUS
 62
     7
  0
LINE
  5
23D
  8
DATA
  6
CONTINUOUS
 62
     7
 10
47.708460404878132
 20
85.467668567715194
 30
0.0
 11
41.858460404878088
 21
84.908751370262834
 31
0.0
  0
LINE
  5
23E
  8
DATA
  6
CONTINUOUS
 62
     7
 10
47.708460404878132
 20
61.576924931820841
 30
0.0
 11
41.858460404878159
 21
62.135842129273122
 31
0.0
  0
ARC
  5
23F
  8
DATA
  6
CONTINUOUS
 62
     7
 10
47.80356871036436
 20
84.472201636959724
 30
0.0
 40
0.9999999999999715
 50
0.0
 51
95.457553485107084
  0
ARC
  5
240
  8
DATA
  6
CONTINUOUS
 62
     7
 10
47.803568710364331
 20
62.572391862576197
 30
0.0
 40
0.9999999999999728
 50
264.54244651489392
 51
0.0000000000015916
  0
ARC
  5
241
  8
DATA
  6
CONTINUOUS
 62
     7
 10
41.95356871036433
 20
83.913284439507379
 30
0.0
 40
1.000000000000087
 50
95.457553485107084
 51
179.99999999999829
  0
ARC
  5
242
  8
DATA
  6
CONTINUOUS
 62
     7
 10
41.95356871036433
 20
63.131309060028492
 30
0.0
 40
1.0
 50
180.0
 51
264.54244651489569
  0
CIRCLE
  5
243
  8
DATA
  6
CONTINUOUS
 62
     7
 10
170.7723780959947
 20
89.772296749768429
 30
0.0
 40
1.1750000000000951
  0
POLYLINE
  5
244
  8
DATA
  6
CONTINUOUS
 62
     7
 66
     1
 10
0.0
 20
0.0
 30
0.0
 70
     1
  0
VERTEX
  5
988
  8
DATA
  6
CONTINUOUS
 62
     7
 10
173.4723780959946
 20
89.772296749768429
 30
0.0
  0
VERTEX
  5
989
  8
DATA
  6
CONTINUOUS
 62
     7
 10
172.12237809599461
 20
92.110565339986309
 30
0.0
  0
VERTEX
  5
98A
  8
DATA
  6
CONTINUOUS
 62
     7
 10
169.42237809599459
 20
92.110565339986309
 30
0.0
  0
VERTEX
  5
98B
  8
DATA
  6
CONTINUOUS
 62
     7
 10
168.07237809599471
 20
89.772296749768429
 30
0.0
  0
VERTEX
  5
98C
  8
DATA
  6
CONTINUOUS
 62
     7
 10
169.42237809599459
 20
87.434028159550223
 30
0.0
  0
VERTEX
  5
98D
  8
DATA
  6
CONTINUOUS
 62
     7
 10
172.12237809599461
 20
87.434028159550223
 30
0.0
  0
SEQEND
  5
98E
  8
DATA
  6
CONTINUOUS
 62
     7
  0
CIRCLE
  5
24D
  8
DATA
  6
CONTINUOUS
 62
     7
 10
170.7723780959947
 20
57.272296749768039
 30
0.0
 40
1.1750000000000671
  0
POLYLINE
  5
24E
  8
DATA
  6
CONTINUOUS
 62
     7
 66
     1
 10
0.0
 20
0.0
 30
0.0
 70
     1
  0
VERTEX
  5
98F
  8
DATA
  6
CONTINUOUS
 62
     7
 10
173.4723780959946
 20
57.272296749768039
 30
0.0
  0
VERTEX
  5
990
  8
DATA
  6
CONTINUOUS
 62
     7
 10
172.12237809599461
 20
59.610565339985968
 30
0.0
  0
VERTEX
  5
991
  8
DATA
  6
CONTINUOUS
 62
     7
 10
169.42237809599459
 20
59.610565339985968
 30
0.0
  0
VERTEX
  5
992
  8
DATA
  6
CONTINUOUS
 62
     7
 10
168.07237809599471
 20
57.272296749768039
 30
0.0
  0
VERTEX
  5
993
  8
DATA
  6
CONTINUOUS
 62
     7
 10
169.42237809599459
 20
54.93402815955001
 30
0.0
  0
VERTEX
  5
994
  8
DATA
  6
CONTINUOUS
 62
     7
 10
172.12237809599461
 20
54.93402815955001
 30
0.0
  0
SEQEND
  5
995
  8
DATA
  6
CONTINUOUS
 62
     7
  0
LINE
  5
257
  8
DATA
  6
CONTINUOUS
 62
     7
 10
174.69737809599471
 20
84.472201636959724
 30
0.0
 11
174.69737809599471
 21
62.572391862576211
 31
0.0
  0
LINE
  5
258
  8
DATA
  6
CONTINUOUS
 62
     7
 10
166.84737809599471
 20
63.131309060028492
 30
0.0
 11
166.84737809599471
 21
83.913284439507379
 31
0.0
  0
POLYLINE
  5
259
  8
DATA
  6
CONTINUOUS
 62
     7
 66
     1
 10
0.0
 20
0.0
 30
0.0
 70
     1
  0
VERTEX
  5
996
  8
DATA
  6
CONTINUOUS
 62
     7
 10
170.00737809599471
 20
84.522362920947216
 30
0.0
  0
VERTEX
  5
997
  8
DATA
  6
CONTINUOUS
 62
     7
 10
171.5373780959946
 20
84.522362920947216
 30
0.0
  0
VERTEX
  5
998
  8
DATA
  6
CONTINUOUS
 62
     7
 10
171.5373780959946
 20
82.992362920947187
 30
0.0
  0
VERTEX
  5
999
  8
DATA
  6
CONTINUOUS
 62
     7
 10
170.00737809599471
 20
82.992362920947187
 30
0.0
  0
SEQEND
  5
99A
  8
DATA
  6
CONTINUOUS
 62
     7
  0
POLYLINE
  5
260
  8
DATA
  6
CONTINUOUS
 62
     7
 66
     1
 10
0.0
 20
0.0
 30
0.0
 70
     1
  0
VERTEX
  5
99B
  8
DATA
  6
CONTINUOUS
 62
     7
 10
170.00737809599471
 20
82.522362920947188
 30
0.0
  0
VERTEX
  5
99C
  8
DATA
  6
CONTINUOUS
 62
     7
 10
171.5373780959946
 20
82.522362920947188
 30
0.0
  0
VERTEX
  5
99D
  8
DATA
  6
CONTINUOUS
 62
     7
 10
171.5373780959946
 20
80.992362920947215
 30
0.0
  0
VERTEX
  5
99E
  8
DATA
  6
CONTINUOUS
 62
     7
 10
170.00737809599471
 20
80.992362920947215
 30
0.0
  0
SEQEND
  5
99F
  8
DATA
  6
CONTINUOUS
 62
     7
  0
POLYLINE
  5
267
  8
DATA
  6
CONTINUOUS
 62
     7
 66
     1
 10
0.0
 20
0.0
 30
0.0
 70
     1
  0
VERTEX
  5
9A0
  8
DATA
  6
CONTINUOUS
 62
     7
 10
170.00737809599471
 20
80.522362920947216
 30
0.0
  0
VERTEX
  5
9A1
  8
DATA
  6
CONTINUOUS
 62
     7
 10
171.5373780959946
 20
80.522362920947216
 30
0.0
  0
VERTEX
  5
9A2
  8
DATA
  6
CONTINUOUS
 62
     7
 10
171.5373780959946
 20
78.992362920947215
 30
0.0
  0
VERTEX
  5
9A3
  8
DATA
  6
CONTINUOUS
 62
     7
 10
170.00737809599471
 20
78.992362920947215
 30
0.0
  0
SEQEND
  5
9A4
  8
DATA
  6
CONTINUOUS
 62
     7
  0
POLYLINE
  5
26E
  8
DATA
  6
CONTINUOUS
 62
     7
 66
     1
 10
0.0
 20
0.0
 30
0.0
 70
     1
  0
VERTEX
  5
9A5
  8
DATA
  6
CONTINUOUS
 62
     7
 10
170.00737809599471
 20
78.522362920947216
 30
0.0
  0
VERTEX
  5
9A6
  8
DATA
  6
CONTINUOUS
 62
     7
 10
171.5373780959946
 20
78.522362920947216
 30
0.0
  0
VERTEX
  5
9A7
  8
DATA
  6
CONTINUOUS
 62
     7
 10
171.5373780959946
 20
76.992362920947215
 30
0.0
  0
VERTEX
  5
9A8
  8
DATA
  6
CONTINUOUS
 62
     7
 10
170.00737809599471
 20
76.992362920947215
 30
0.0
  0
SEQEND
  5
9A9
  8
DATA
  6
CONTINUOUS
 62
     7
  0
POLYLINE
  5
275
  8
DATA
  6
CONTINUOUS
 62
     7
 66
     1
 10
0.0
 20
0.0
 30
0.0
 70
     1
  0
VERTEX
  5
9AA
  8
DATA
  6
CONTINUOUS
 62
     7
 10
170.00737809599471
 20
76.522362920947231
 30
0.0
  0
VERTEX
  5
9AB
  8
DATA
  6
CONTINUOUS
 62
     7
 10
171.5373780959946
 20
76.522362920947231
 30
0.0
  0
VERTEX
  5
9AC
  8
DATA
  6
CONTINUOUS
 62
     7
 10
171.5373780959946
 20
74.992362920947286
 30
0.0
  0
VERTEX
  5
9AD
  8
DATA
  6
CONTINUOUS
 62
     7
 10
170.00737809599471
 20
74.992362920947286
 30
0.0
  0
SEQEND
  5
9AE
  8
DATA
  6
CONTINUOUS
 62
     7
  0
POLYLINE
  5
27C
  8
DATA
  6
CONTINUOUS
 62
     7
 66
     1
 10
0.0
 20
0.0
 30
0.0
 70
     1
  0
VERTEX
  5
9AF
  8
DATA
  6
CONTINUOUS
 62
     7
 10
170.00737809599471
 20
74.522362920947259
 30
0.0
  0
VERTEX
  5
9B0
  8
DATA
  6
CONTINUOUS
 62
     7
 10
171.5373780959946
 20
74.522362920947259
 30
0.0
  0
VERTEX
  5
9B1
  8
DATA
  6
CONTINUOUS
 62
     7
 10
171.5373780959946
 20
72.992362920947286
 30
0.0
  0
VERTEX
  5
9B2
  8
DATA
  6
CONTINUOUS
 62
     7
 10
170.00737809599471
 20
72.992362920947286
 30
0.0
  0
SEQEND
  5
9B3
  8
DATA
  6
CONTINUOUS
 62
     7
  0
POLYLINE
  5
283
  8
DATA
  6
CONTINUOUS
 62
     7
 66
     1
 10
0.0
 20
0.0
 30
0.0
 70
     1
  0
VERTEX
  5
9B4
  8
DATA
  6
CONTINUOUS
 62
     7
 10
170.00737809599471
 20
72.522362920947259
 30
0.0
  0
VERTEX
  5
9B5
  8
DATA
  6
CONTINUOUS
 62
     7
 10
171.5373780959946
 20
72.522362920947259
 30
0.0
  0
VERTEX
  5
9B6
  8
DATA
  6
CONTINUOUS
 62
     7
 10
171.5373780959946
 20
70.992362920947301
 30
0.0
  0
VERTEX
  5
9B7
  8
DATA
  6
CONTINUOUS
 62
     7
 10
170.00737809599471
 20
70.992362920947301
 30
0.0
  0
SEQEND
  5
9B8
  8
DATA
  6
CONTINUOUS
 62
     7
  0
POLYLINE
  5
28A
  8
DATA
  6
CONTINUOUS
 62
     7
 66
     1
 10
0.0
 20
0.0
 30
0.0
 70
     1
  0
VERTEX
  5
9B9
  8
DATA
  6
CONTINUOUS
 62
     7
 10
170.00737809599471
 20
70.522362920947288
 30
0.0
  0
VERTEX
  5
9BA
  8
DATA
  6
CONTINUOUS
 62
     7
 10
171.5373780959946
 20
70.522362920947288
 30
0.0
  0
VERTEX
  5
9BB
  8
DATA
  6
CONTINUOUS
 62
     7
 10
171.5373780959946
 20
68.992362920947286
 30
0.0
  0
VERTEX
  5
9BC
  8
DATA
  6
CONTINUOUS
 62
     7
 10
170.00737809599471
 20
68.992362920947286
 30
0.0
  0
SEQEND
  5
9BD
  8
DATA
  6
CONTINUOUS
 62
     7
  0
POLYLINE
  5
291
  8
DATA
  6
CONTINUOUS
 62
     7
 66
     1
 10
0.0
 20
0.0
 30
0.0
 70
     1
  0
VERTEX
  5
9BE
  8
DATA
  6
CONTINUOUS
 62
     7
 10
172.00737809599471
 20
84.522362920947216
 30
0.0
  0
VERTEX
  5
9BF
  8
DATA
  6
CONTINUOUS
 62
     7
 10
173.5373780959946
 20
84.522362920947216
 30
0.0
  0
VERTEX
  5
9C0
  8
DATA
  6
CONTINUOUS
 62
     7
 10
173.5373780959946
 20
82.992362920947187
 30
0.0
  0
VERTEX
  5
9C1
  8
DATA
  6
CONTINUOUS
 62
     7
 10
172.00737809599471
 20
82.992362920947187
 30
0.0
  0
SEQEND
  5
9C2
  8
DATA
  6
CONTINUOUS
 62
     7
  0
POLYLINE
  5
298
  8
DATA
  6
CONTINUOUS
 62
     7
 66
     1
 10
0.0
 20
0.0
 30
0.0
 70
     1
  0
VERTEX
  5
9C3
  8
DATA
  6
CONTINUOUS
 62
     7
 10
172.00737809599471
 20
82.522362920947188
 30
0.0
  0
VERTEX
  5
9C4
  8
DATA
  6
CONTINUOUS
 62
     7
 10
173.5373780959946
 20
82.522362920947188
 30
0.0
  0
VERTEX
  5
9C5
  8
DATA
  6
CONTINUOUS
 62
     7
 10
173.5373780959946
 20
80.992362920947215
 30
0.0
  0
VERTEX
  5
9C6
  8
DATA
  6
CONTINUOUS
 62
     7
 10
172.00737809599471
 20
80.992362920947215
 30
0.0
  0
SEQEND
  5
9C7
  8
DATA
  6
CONTINUOUS
 62
     7
  0
POLYLINE
  5
29F
  8
DATA
  6
CONTINUOUS
 62
     7
 66
     1
 10
0.0
 20
0.0
 30
0.0
 70
     1
  0
VERTEX
  5
9C8
  8
DATA
  6
CONTINUOUS
 62
     7
 10
172.00737809599471
 20
80.522362920947216
 30
0.0
  0
VERTEX
  5
9C9
  8
DATA
  6
CONTINUOUS
 62
     7
 10
173.5373780959946
 20
80.522362920947216
 30
0.0
  0
VERTEX
  5
9CA
  8
DATA
  6
CONTINUOUS
 62
     7
 10
173.5373780959946
 20
78.992362920947215
 30
0.0
  0
VERTEX
  5
9CB
  8
DATA
  6
CONTINUOUS
 62
     7
 10
172.00737809599471
 20
78.992362920947215
 30
0.0
  0
SEQEND
  5
9CC
  8
DATA
  6
CONTINUOUS
 62
     7
  0
POLYLINE
  5
2A6
  8
DATA
  6
CONTINUOUS
 62
     7
 66
     1
 10
0.0
 20
0.0
 30
0.0
 70
     1
  0
VERTEX
  5
9CD
  8
DATA
  6
CONTINUOUS
 62
     7
 10
172.00737809599471
 20
78.522362920947216
 30
0.0
  0
VERTEX
  5
9CE
  8
DATA
  6
CONTINUOUS
 62
     7
 10
173.5373780959946
 20
78.522362920947216
 30
0.0
  0
VERTEX
  5
9CF
  8
DATA
  6
CONTINUOUS
 62
     7
 10
173.5373780959946
 20
76.992362920947215
 30
0.0
  0
VERTEX
  5
9D0
  8
DATA
  6
CONTINUOUS
 62
     7
 10
172.00737809599471
 20
76.992362920947215
 30
0.0
  0
SEQEND
  5
9D1
  8
DATA
  6
CONTINUOUS
 62
     7
  0
POLYLINE
  5
2AD
  8
DATA
  6
CONTINUOUS
 62
     7
 66
     1
 10
0.0
 20
0.0
 30
0.0
 70
     1
  0
VERTEX
  5
9D2
  8
DATA
  6
CONTINUOUS
 62
     7
 10
172.00737809599471
 20
76.522362920947231
 30
0.0
  0
VERTEX
  5
9D3
  8
DATA
  6
CONTINUOUS
 62
     7
 10
173.5373780959946
 20
76.522362920947231
 30
0.0
  0
VERTEX
  5
9D4
  8
DATA
  6
CONTINUOUS
 62
     7
 10
173.5373780959946
 20
74.992362920947286
 30
0.0
  0
VERTEX
  5
9D5
  8
DATA
  6
CONTINUOUS
 62
     7
 10
172.00737809599471
 20
74.992362920947286
 30
0.0
  0
SEQEND
  5
9D6
  8
DATA
  6
CONTINUOUS
 62
     7
  0
POLYLINE
  5
2B4
  8
DATA
  6
CONTINUOUS
 62
     7
 66
     1
 10
0.0
 20
0.0
 30
0.0
 70
     1
  0
VERTEX
  5
9D7
  8
DATA
  6
CONTINUOUS
 62
     7
 10
172.00737809599471
 20
74.522362920947259
 30
0.0
  0
VERTEX
  5
9D8
  8
DATA
  6
CONTINUOUS
 62
     7
 10
173.5373780959946
 20
74.522362920947259
 30
0.0
  0
VERTEX
  5
9D9
  8
DATA
  6
CONTINUOUS
 62
     7
 10
173.5373780959946
 20
72.992362920947286
 30
0.0
  0
VERTEX
  5
9DA
  8
DATA
  6
CONTINUOUS
 62
     7
 10
172.00737809599471
 20
72.992362920947286
 30
0.0
  0
SEQEND
  5
9DB
  8
DATA
  6
CONTINUOUS
 62
     7
  0
POLYLINE
  5
2BB
  8
DATA
  6
CONTINUOUS
 62
     7
 66
     1
 10
0.0
 20
0.0
 30
0.0
 70
     1
  0
VERTEX
  5
9DC
  8
DATA
  6
CONTINUOUS
 62
     7
 10
172.00737809599471
 20
72.522362920947259
 30
0.0
  0
VERTEX
  5
9DD
  8
DATA
  6
CONTINUOUS
 62
     7
 10
173.5373780959946
 20
72.522362920947259
 30
0.0
  0
VERTEX
  5
9DE
  8
DATA
  6
CONTINUOUS
 62
     7
 10
173.5373780959946
 20
70.992362920947301
 30
0.0
  0
VERTEX
  5
9DF
  8
DATA
  6
CONTINUOUS
 62
     7
 10
172.00737809599471
 20
70.992362920947301
 30
0.0
  0
SEQEND
  5
9E0
  8
DATA
  6
CONTINUOUS
 62
     7
  0
POLYLINE
  5
2C2
  8
DATA
  6
CONTINUOUS
 62
     7
 66
     1
 10
0.0
 20
0.0
 30
0.0
 70
     1
  0
VERTEX
  5
9E1
  8
DATA
  6
CONTINUOUS
 62
     7
 10
172.00737809599471
 20
70.522362920947288
 30
0.0
  0
VERTEX
  5
9E2
  8
DATA
  6
CONTINUOUS
 62
     7
 10
173.5373780959946
 20
70.522362920947288
 30
0.0
  0
VERTEX
  5
9E3
  8
DATA
  6
CONTINUOUS
 62
     7
 10
173.5373780959946
 20
68.992362920947286
 30
0.0
  0
VERTEX
  5
9E4
  8
DATA
  6
CONTINUOUS
 62
     7
 10
172.00737809599471
 20
68.992362920947286
 30
0.0
  0
SEQEND
  5
9E5
  8
DATA
  6
CONTINUOUS
 62
     7
  0
POLYLINE
  5
2C9
  8
DATA
  6
CONTINUOUS
 62
     7
 66
     1
 10
0.0
 20
0.0
 30
0.0
 70
     1
  0
VERTEX
  5
9E6
  8
DATA
  6
CONTINUOUS
 62
     7
 10
168.0073780959946
 20
84.522362920947216
 30
0.0
  0
VERTEX
  5
9E7
  8
DATA
  6
CONTINUOUS
 62
     7
 10
169.5373780959946
 20
84.522362920947216
 30
0.0
  0
VERTEX
  5
9E8
  8
DATA
  6
CONTINUOUS
 62
     7
 10
169.5373780959946
 20
82.992362920947187
 30
0.0
  0
VERTEX
  5
9E9
  8
DATA
  6
CONTINUOUS
 62
     7
 10
168.0073780959946
 20
82.992362920947187
 30
0.0
  0
SEQEND
  5
9EA
  8
DATA
  6
CONTINUOUS
 62
     7
  0
POLYLINE
  5
2D0
  8
DATA
  6
CONTINUOUS
 62
     7
 66
     1
 10
0.0
 20
0.0
 30
0.0
 70
     1
  0
VERTEX
  5
9EB
  8
DATA
  6
CONTINUOUS
 62
     7
 10
168.0073780959946
 20
82.522362920947188
 30
0.0
  0
VERTEX
  5
9EC
  8
DATA
  6
CONTINUOUS
 62
     7
 10
169.5373780959946
 20
82.522362920947188
 30
0.0
  0
VERTEX
  5
9ED
  8
DATA
  6
CONTINUOUS
 62
     7
 10
169.5373780959946
 20
80.992362920947215
 30
0.0
  0
VERTEX
  5
9EE
  8
DATA
  6
CONTINUOUS
 62
     7
 10
168.0073780959946
 20
80.992362920947215
 30
0.0
  0
SEQEND
  5
9EF
  8
DATA
  6
CONTINUOUS
 62
     7
  0
POLYLINE
  5
2D7
  8
DATA
  6
CONTINUOUS
 62
     7
 66
     1
 10
0.0
 20
0.0
 30
0.0
 70
     1
  0
VERTEX
  5
9F0
  8
DATA
  6
CONTINUOUS
 62
     7
 10
168.0073780959946
 20
80.522362920947216
 30
0.0
  0
VERTEX
  5
9F1
  8
DATA
  6
CONTINUOUS
 62
     7
 10
169.5373780959946
 20
80.522362920947216
 30
0.0
  0
VERTEX
  5
9F2
  8
DATA
  6
CONTINUOUS
 62
     7
 10
169.5373780959946
 20
78.992362920947215
 30
0.0
  0
VERTEX
  5
9F3
  8
DATA
  6
CONTINUOUS
 62
     7
 10
168.0073780959946
 20
78.992362920947215
 30
0.0
  0
SEQEND
  5
9F4
  8
DATA
  6
CONTINUOUS
 62
     7
  0
POLYLINE
  5
2DE
  8
DATA
  6
CONTINUOUS
 62
     7
 66
     1
 10
0.0
 20
0.0
 30
0.0
 70
     1
  0
VERTEX
  5
9F5
  8
DATA
  6
CONTINUOUS
 62
     7
 10
168.0073780959946
 20
78.522362920947216
 30
0.0
  0
VERTEX
  5
9F6
  8
DATA
  6
CONTINUOUS
 62
     7
 10
169.5373780959946
 20
78.522362920947216
 30
0.0
  0
VERTEX
  5
9F7
  8
DATA
  6
CONTINUOUS
 62
     7
 10
169.5373780959946
 20
76.992362920947215
 30
0.0
  0
VERTEX
  5
9F8
  8
DATA
  6
CONTINUOUS
 62
     7
 10
168.0073780959946
 20
76.992362920947215
 30
0.0
  0
SEQEND
  5
9F9
  8
DATA
  6
CONTINUOUS
 62
     7
  0
POLYLINE
  5
2E5
  8
DATA
  6
CONTINUOUS
 62
     7
 66
     1
 10
0.0
 20
0.0
 30
0.0
 70
     1
  0
VERTEX
  5
9FA
  8
DATA
  6
CONTINUOUS
 62
     7
 10
168.0073780959946
 20
76.522362920947231
 30
0.0
  0
VERTEX
  5
9FB
  8
DATA
  6
CONTINUOUS
 62
     7
 10
169.5373780959946
 20
76.522362920947231
 30
0.0
  0
VERTEX
  5
9FC
  8
DATA
  6
CONTINUOUS
 62
     7
 10
169.5373780959946
 20
74.992362920947286
 30
0.0
  0
VERTEX
  5
9FD
  8
DATA
  6
CONTINUOUS
 62
     7
 10
168.0073780959946
 20
74.992362920947286
 30
0.0
  0
SEQEND
  5
9FE
  8
DATA
  6
CONTINUOUS
 62
     7
  0
POLYLINE
  5
2EC
  8
DATA
  6
CONTINUOUS
 62
     7
 66
     1
 10
0.0
 20
0.0
 30
0.0
 70
     1
  0
VERTEX
  5
9FF
  8
DATA
  6
CONTINUOUS
 62
     7
 10
168.0073780959946
 20
74.522362920947259
 30
0.0
  0
VERTEX
  5
A00
  8
DATA
  6
CONTINUOUS
 62
     7
 10
169.5373780959946
 20
74.522362920947259
 30
0.0
  0
VERTEX
  5
A01
  8
DATA
  6
CONTINUOUS
 62
     7
 10
169.5373780959946
 20
72.992362920947286
 30
0.0
  0
VERTEX
  5
A02
  8
DATA
  6
CONTINUOUS
 62
     7
 10
168.0073780959946
 20
72.992362920947286
 30
0.0
  0
SEQEND
  5
A03
  8
DATA
  6
CONTINUOUS
 62
     7
  0
POLYLINE
  5
2F3
  8
DATA
  6
CONTINUOUS
 62
     7
 66
     1
 10
0.0
 20
0.0
 30
0.0
 70
     1
  0
VERTEX
  5
A04
  8
DATA
  6
CONTINUOUS
 62
     7
 10
168.0073780959946
 20
72.522362920947259
 30
0.0
  0
VERTEX
  5
A05
  8
DATA
  6
CONTINUOUS
 62
     7
 10
169.5373780959946
 20
72.522362920947259
 30
0.0
  0
VERTEX
  5
A06
  8
DATA
  6
CONTINUOUS
 62
     7
 10
169.5373780959946
 20
70.992362920947301
 30
0.0
  0
VERTEX
  5
A07
  8
DATA
  6
CONTINUOUS
 62
     7
 10
168.0073780959946
 20
70.992362920947301
 30
0.0
  0
SEQEND
  5
A08
  8
DATA
  6
CONTINUOUS
 62
     7
  0
POLYLINE
  5
2FA
  8
DATA
  6
CONTINUOUS
 62
     7
 66
     1
 10
0.0
 20
0.0
 30
0.0
 70
     1
  0
VERTEX
  5
A09
  8
DATA
  6
CONTINUOUS
 62
     7
 10
168.0073780959946
 20
70.522362920947288
 30
0.0
  0
VERTEX
  5
A0A
  8
DATA
  6
CONTINUOUS
 62
     7
 10
169.5373780959946
 20
70.522362920947288
 30
0.0
  0
VERTEX
  5
A0B
  8
DATA
  6
CONTINUOUS
 62
     7
 10
169.5373780959946
 20
68.992362920947286
 30
0.0
  0
VERTEX
  5
A0C
  8
DATA
  6
CONTINUOUS
 62
     7
 10
168.0073780959946
 20
68.992362920947286
 30
0.0
  0
SEQEND
  5
A0D
  8
DATA
  6
CONTINUOUS
 62
     7
  0
POLYLINE
  5
301
  8
DATA
  6
CONTINUOUS
 62
     7
 66
     1
 10
0.0
 20
0.0
 30
0.0
  0
VERTEX
  5
A0E
  8
DATA
  6
CONTINUOUS
 62
     7
 10
171.17237809599459
 20
64.972296749767892
 30
0.0
  0
VERTEX
  5
A0F
  8
DATA
  6
CONTINUOUS
 62
     7
 10
171.17237809599459
 20
62.872296749767891
 30
0.0
  0
VERTEX
  5
A10
  8
DATA
  6
CONTINUOUS
 62
     7
 10
170.37237809599441
 20
62.872296749767891
 30
0.0
  0
VERTEX
  5
A11
  8
DATA
  6
CONTINUOUS
 62
     7
 10
170.37237809599441
 20
64.972296749767892
 30
0.0
  0
SEQEND
  5
A12
  8
DATA
  6
CONTINUOUS
 62
     7
  0
POLYLINE
  5
308
  8
DATA
  6
CONTINUOUS
 62
     7
 66
     1
 10
0.0
 20
0.0
 30
0.0
  0
VERTEX
  5
A13
  8
DATA
  6
CONTINUOUS
 62
     7
 10
170.37237809599441
 20
65.772296749767889
 30
0.0
  0
VERTEX
  5
A14
  8
DATA
  6
CONTINUOUS
 62
     7
 10
170.37237809599441
 20
67.872296749767884
 30
0.0
  0
VERTEX
  5
A15
  8
DATA
  6
CONTINUOUS
 62
     7
 10
171.17237809599459
 20
67.872296749767884
 30
0.0
  0
VERTEX
  5
A16
  8
DATA
  6
CONTINUOUS
 62
     7
 10
171.17237809599459
 20
65.772296749767889
 30
0.0
  0
SEQEND
  5
A17
  8
DATA
  6
CONTINUOUS
 62
     7
  0
POLYLINE
  5
30F
  8
DATA
  6
CONTINUOUS
 62
     7
 66
     1
 10
0.0
 20
0.0
 30
0.0
  0
VERTEX
  5
A18
  8
DATA
  6
CONTINUOUS
 62
     7
 10
170.37237809599441
 20
64.972296749767892
 30
0.0
  0
VERTEX
  5
A19
  8
DATA
  6
CONTINUOUS
 62
     7
 10
168.2723780959947
 20
64.972296749767892
 30
0.0
  0
VERTEX
  5
A1A
  8
DATA
  6
CONTINUOUS
 62
     7
 10
168.2723780959947
 20
65.772296749767889
 30
0.0
  0
VERTEX
  5
A1B
  8
DATA
  6
CONTINUOUS
 62
     7
 10
170.37237809599441
 20
65.772296749767889
 30
0.0
  0
SEQEND
  5
A1C
  8
DATA
  6
CONTINUOUS
 62
     7
  0
POLYLINE
  5
316
  8
DATA
  6
CONTINUOUS
 62
     7
 66
     1
 10
0.0
 20
0.0
 30
0.0
  0
VERTEX
  5
A1D
  8
DATA
  6
CONTINUOUS
 62
     7
 10
171.17237809599459
 20
65.772296749767889
 30
0.0
  0
VERTEX
  5
A1E
  8
DATA
  6
CONTINUOUS
 62
     7
 10
173.2723780959947
 20
65.772296749767889
 30
0.0
  0
VERTEX
  5
A1F
  8
DATA
  6
CONTINUOUS
 62
     7
 10
173.2723780959947
 20
64.972296749767892
 30
0.0
  0
VERTEX
  5
A20
  8
DATA
  6
CONTINUOUS
 62
     7
 10
171.17237809599459
 20
64.972296749767892
 30
0.0
  0
SEQEND
  5
A21
  8
DATA
  6
CONTINUOUS
 62
     7
  0
POLYLINE
  5
31D
  8
DATA
  6
CONTINUOUS
 62
     7
 66
     1
 10
0.0
 20
0.0
 30
0.0
 70
     1
  0
VERTEX
  5
A22
  8
DATA
  6
CONTINUOUS
 62
     7
 10
171.53180590664459
 20
67.23258118023962
 30
0.0
  0
VERTEX
  5
A23
  8
DATA
  6
CONTINUOUS
 62
     7
 10
172.53180590664459
 20
67.23258118023962
 30
0.0
  0
VERTEX
  5
A24
  8
DATA
  6
CONTINUOUS
 62
     7
 10
172.53180590664459
 20
66.23258118023962
 30
0.0
  0
VERTEX
  5
A25
  8
DATA
  6
CONTINUOUS
 62
     7
 10
171.53180590664459
 20
66.23258118023962
 30
0.0
  0
SEQEND
  5
A26
  8
DATA
  6
CONTINUOUS
 62
     7
  0
POLYLINE
  5
324
  8
DATA
  6
CONTINUOUS
 62
     7
 66
     1
 10
0.0
 20
0.0
 30
0.0
 70
     1
  0
VERTEX
  5
A27
  8
DATA
  6
CONTINUOUS
 62
     7
 10
171.53180590664459
 20
64.512012319296176
 30
0.0
  0
VERTEX
  5
A28
  8
DATA
  6
CONTINUOUS
 62
     7
 10
172.53180590664459
 20
64.512012319296176
 30
0.0
  0
VERTEX
  5
A29
  8
DATA
  6
CONTINUOUS
 62
     7
 10
172.53180590664459
 20
63.512012319296183
 30
0.0
  0
VERTEX
  5
A2A
  8
DATA
  6
CONTINUOUS
 62
     7
 10
171.53180590664459
 20
63.512012319296183
 30
0.0
  0
SEQEND
  5
A2B
  8
DATA
  6
CONTINUOUS
 62
     7
  0
POLYLINE
  5
32B
  8
DATA
  6
CONTINUOUS
 62
     7
 66
     1
 10
0.0
 20
0.0
 30
0.0
 70
     1
  0
VERTEX
  5
A2C
  8
DATA
  6
CONTINUOUS
 62
     7
 10
169.01295028534469
 20
67.23258118023962
 30
0.0
  0
VERTEX
  5
A2D
  8
DATA
  6
CONTINUOUS
 62
     7
 10
170.01295028534469
 20
67.23258118023962
 30
0.0
  0
VERTEX
  5
A2E
  8
DATA
  6
CONTINUOUS
 62
     7
 10
170.01295028534469
 20
66.23258118023962
 30
0.0
  0
VERTEX
  5
A2F
  8
DATA
  6
CONTINUOUS
 62
     7
 10
169.01295028534469
 20
66.23258118023962
 30
0.0
  0
SEQEND
  5
A30
  8
DATA
  6
CONTINUOUS
 62
     7
  0
POLYLINE
  5
332
  8
DATA
  6
CONTINUOUS
 62
     7
 66
     1
 10
0.0
 20
0.0
 30
0.0
 70
     1
  0
VERTEX
  5
A31
  8
DATA
  6
CONTINUOUS
 62
     7
 10
169.01295028534469
 20
64.512012319296176
 30
0.0
  0
VERTEX
  5
A32
  8
DATA
  6
CONTINUOUS
 62
     7
 10
170.01295028534469
 20
64.512012319296176
 30
0.0
  0
VERTEX
  5
A33
  8
DATA
  6
CONTINUOUS
 62
     7
 10
170.01295028534469
 20
63.512012319296183
 30
0.0
  0
VERTEX
  5
A34
  8
DATA
  6
CONTINUOUS
 62
     7
 10
169.01295028534469
 20
63.512012319296183
 30
0.0
  0
SEQEND
  5
A35
  8
DATA
  6
CONTINUOUS
 62
     7
  0
LINE
  5
339
  8
DATA
  6
CONTINUOUS
 62
     7
 10
173.60226979050839
 20
85.467668567715194
 30
0.0
 11
167.75226979050839
 21
84.908751370262834
 31
0.0
  0
LINE
  5
33A
  8
DATA
  6
CONTINUOUS
 62
     7
 10
173.60226979050839
 20
61.576924931820841
 30
0.0
 11
167.75226979050851
 21
62.135842129273122
 31
0.0
  0
ARC
  5
33B
  8
DATA
  6
CONTINUOUS
 62
     7
 10
173.69737809599471
 20
84.472201636959724
 30
0.0
 40
0.9999999999999715
 50
0.0
 51
95.457553485107084
  0
ARC
  5
33C
  8
DATA
  6
CONTINUOUS
 62
     7
 10
173.69737809599471
 20
62.572391862576197
 30
0.0
 40
0.9999999999999728
 50
264.54244651489392
 51
0.0000000000015916
  0
ARC
  5
33D
  8
DATA
  6
CONTINUOUS
 62
     7
 10
167.8473780959946
 20
83.913284439507379
 30
0.0
 40
1.000000000000087
 50
95.457553485107084
 51
179.99999999999829
  0
ARC
  5
33E
  8
DATA
  6
CONTINUOUS
 62
     7
 10
167.8473780959946
 20
63.131309060028492
 30
0.0
 40
0.9999999999999572
 50
180.0
 51
264.54244651489569
  0
POLYLINE
  5
33F
  8
DATA
  6
CONTINUOUS
 62
     7
 66
     1
 10
0.0
 20
0.0
 30
0.0
 70
     1
  0
VERTEX
  5
A36
  8
DATA
  6
CONTINUOUS
 62
     7
 10
166.14469375911179
 20
92.522296749768245
 30
0.0
  0
VERTEX
  5
A37
  8
DATA
  6
CONTINUOUS
 62
     7
 10
189.14469375911159
 20
92.522296749768245
 30
0.0
  0
VERTEX
  5
A38
  8
DATA
  6
CONTINUOUS
 62
     7
 10
189.14469375911159
 20
54.52229674976823
 30
0.0
  0
VERTEX
  5
A39
  8
DATA
  6
CONTINUOUS
 62
     7
 10
166.14469375911179
 20
54.52229674976823
 30
0.0
  0
SEQEND
  5
A3A
  8
DATA
  6
CONTINUOUS
 62
     7
  0
CIRCLE
  5
346
  8
DATA
  6
CONTINUOUS
 62
     7
 10
179.30021566836339
 20
89.772296749768429
 30
0.0
 40
1.1750000000000951
  0
CIRCLE
  5
347
  8
DATA
  6
CONTINUOUS
 62
     7
 10
179.30021566836339
 20
57.272296749768039
 30
0.0
 40
1.1750000000000671
  0
LINE
  5
348
  8
DATA
  6
CONTINUOUS
 62
     7
 10
133.125
 20
92.110565339986309
 30
0.0
 11
128.125
 21
92.110565339986309
 31
0.0
  0
LINE
  5
349
  8
DATA
  6
CONTINUOUS
 62
     7
 10
133.125
 20
87.434028159550223
 30
0.0
 11
128.125
 21
87.434028159550223
 31
0.0
  0
LINE
  5
34A
  8
DATA
  6
CONTINUOUS
 62
     7
 10
133.125
 20
85.550000000000026
 30
0.0
 11
128.125
 21
85.550000000000026
 31
0.0
  0
LINE
  5
34B
  8
DATA
  6
CONTINUOUS
 62
     7
 10
133.125
 20
54.93402815955001
 30
0.0
 11
128.125
 21
54.93402815955001
 31
0.0
  0
LINE
  5
34C
  8
DATA
  6
CONTINUOUS
 62
     7
 10
133.125
 20
59.610565339985968
 30
0.0
 11
128.125
 21
59.610565339985968
 31
0.0
  0
LINE
  5
34D
  8
DATA
  6
CONTINUOUS
 62
     7
 10
133.125
 20
61.592750601953902
 30
0.0
 11
128.125
 21
61.592750601953902
 31
0.0
  0
LINE
  5
34E
  8
DATA
  6
CONTINUOUS
 62
     7
 10
133.125
 20
85.550000000000026
 30
0.0
 11
133.125
 21
61.592750601953902
 31
0.0
  0
LINE
  5
34F
  8
DATA
  6
CONTINUOUS
 62
     7
 10
133.125
 20
59.610565339985968
 30
0.0
 11
133.125
 21
54.93402815955001
 31
0.0
  0
LINE
  5
350
  8
DATA
  6
CONTINUOUS
 62
     7
 10
133.125
 20
87.434028159550223
 30
0.0
 11
133.125
 21
92.110565339986309
 31
0.0
  0
LINE
  5
351
  8
DATA
  6
CONTINUOUS
 62
     7
 10
108.125
 20
92.110565339986309
 30
0.0
 11
108.125
 21
87.434028159550223
 31
0.0
  0
LINE
  5
352
  8
DATA
  6
CONTINUOUS
 62
     7
 10
108.125
 20
85.550000000000026
 30
0.0
 11
108.125
 21
61.592750601953902
 31
0.0
  0
LINE
  5
353
  8
DATA
  6
CONTINUOUS
 62
     7
 10
108.125
 20
59.610565339985968
 30
0.0
 11
108.125
 21
54.93402815955001
 31
0.0
  0
LINE
  5
354
  8
DATA
  6
CONTINUOUS
 62
     7
 10
114.125
 20
92.110565339986309
 30
0.0
 11
114.125
 21
54.93402815955001
 31
0.0
  0
LINE
  5
355
  8
DATA
  6
CONTINUOUS
 62
     7
 10
114.125
 20
92.110565339986309
 30
0.0
 11
108.125
 21
92.110565339986309
 31
0.0
  0
LINE
  5
356
  8
DATA
  6
CONTINUOUS
 62
     7
 10
114.125
 20
87.434028159550223
 30
0.0
 11
108.125
 21
87.434028159550223
 31
0.0
  0
LINE
  5
357
  8
DATA
  6
CONTINUOUS
 62
     7
 10
114.125
 20
85.550000000000026
 30
0.0
 11
108.125
 21
85.550000000000026
 31
0.0
  0
LINE
  5
358
  8
DATA
  6
CONTINUOUS
 62
     7
 10
114.125
 20
61.592750601953902
 30
0.0
 11
108.125
 21
61.592750601953902
 31
0.0
  0
LINE
  5
359
  8
DATA
  6
CONTINUOUS
 62
     7
 10
114.125
 20
59.610565339985968
 30
0.0
 11
108.125
 21
59.610565339985968
 31
0.0
  0
LINE
  5
35A
  8
DATA
  6
CONTINUOUS
 62
     7
 10
114.125
 20
54.93402815955001
 30
0.0
 11
108.125
 21
54.93402815955001
 31
0.0
  0
LINE
  5
35B
  8
DATA
  6
CONTINUOUS
 62
     7
 10
114.125
 20
92.110565339986309
 30
0.0
 11
122.52500000000001
 21
92.110565339986309
 31
0.0
  0
LINE
  5
35C
  8
DATA
  6
CONTINUOUS
 62
     7
 10
114.125
 20
54.93402815955001
 30
0.0
 11
122.52500000000001
 21
54.93402815955001
 31
0.0
  0
LINE
  5
35D
  8
DATA
  6
CONTINUOUS
 62
     7
 10
119.125
 20
92.110565339986309
 30
0.0
 11
119.125
 21
54.93402815955001
 31
0.0
  0
LINE
  5
35E
  8
DATA
  6
CONTINUOUS
 62
     7
 10
48.318041289235843
 20
198.125
 30
0.0
 11
56.018041289235839
 21
198.125
 31
0.0
  0
LINE
  5
35F
  8
DATA
  6
CONTINUOUS
 62
     7
 10
57.059753898131063
 20
186.125
 30
0.0
 11
57.059753898131063
 21
192.125
 31
0.0
  0
LINE
  5
360
  8
DATA
  6
CONTINUOUS
 62
     7
 10
47.059753898131063
 20
191.125
 30
0.0
 11
47.059753898131063
 21
192.125
 31
0.0
  0
LINE
  5
361
  8
DATA
  6
CONTINUOUS
 62
     7
 10
56.018041289235839
 20
192.125
 30
0.0
 11
56.018041289235839
 21
198.125
 31
0.0
  0
LINE
  5
362
  8
DATA
  6
CONTINUOUS
 62
     7
 10
48.318041289235843
 20
192.125
 30
0.0
 11
48.318041289235843
 21
198.125
 31
0.0
  0
LINE
  5
363
  8
DATA
  6
CONTINUOUS
 62
     7
 10
47.059753898131063
 20
192.125
 30
0.0
 11
57.059753898131063
 21
192.125
 31
0.0
  0
LINE
  5
364
  8
DATA
  6
CONTINUOUS
 62
     7
 10
47.972993547212774
 20
186.125
 30
0.0
 11
57.059753898131063
 21
186.125
 31
0.0
  0
LINE
  5
365
  8
DATA
  6
CONTINUOUS
 62
     7
 10
40.953568710364323
 20
173.125
 30
0.0
 11
40.953568710364323
 21
178.125
 31
0.0
  0
LINE
  5
366
  8
DATA
  6
CONTINUOUS
 62
     7
 10
48.803568710364331
 20
173.125
 30
0.0
 11
48.803568710364331
 21
178.125
 31
0.0
  0
LINE
  5
367
  8
DATA
  6
CONTINUOUS
 62
     7
 10
48.803568710364331
 20
173.125
 30
0.0
 11
40.953568710364323
 21
173.125
 31
0.0
  0
LINE
  5
368
  8
DATA
  6
CONTINUOUS
 62
     7
 10
42.128949108580521
 20
173.125
 30
0.0
 11
42.128949108580521
 21
178.125
 31
0.0
  0
LINE
  5
369
  8
DATA
  6
CONTINUOUS
 62
     7
 10
47.528949108580093
 20
173.125
 30
0.0
 11
47.528949108580093
 21
178.125
 31
0.0
  0
LINE
  5
36A
  8
DATA
  6
CONTINUOUS
 62
     7
 10
42.128949108580521
 20
173.125
 30
0.0
 11
47.528949108580093
 21
173.125
 31
0.0
  0
LINE
  5
36B
  8
DATA
  6
CONTINUOUS
 62
     7
 10
43.478949108580487
 20
173.125
 30
0.0
 11
43.478949108580487
 21
178.125
 31
0.0
  0
LINE
  5
36C
  8
DATA
  6
CONTINUOUS
 62
     7
 10
46.178949108580163
 20
173.125
 30
0.0
 11
46.178949108580163
 21
178.125
 31
0.0
  0
LINE
  5
36D
  8
DATA
  6
CONTINUOUS
 62
     7
 10
185.9424997763121
 20
118.27524565151199
 30
0.0
 11
182.9862941517207
 21
118.27524565151199
 31
0.0
  0
LINE
  5
36E
  8
DATA
  6
CONTINUOUS
 62
     7
 10
185.9424997763121
 20
102.2752456515117
 30
0.0
 11
182.9862941517207
 21
102.2752456515117
 31
0.0
  0
ENDSEC
  0
EOF
