  0
SECTION
  2
HEADER
  9
$ACADVER
  1
AC1015
  9
$ACADMAINTVER
 70
    20
  9
$DWGCODEPAGE
  3
ANSI_932
  9
$INSBASE
 10
0.0
 20
0.0
 30
0.0
  9
$EXTMIN
 10
-35.0
 20
-64.59718094191565
 30
0.0
  9
$EXTMAX
 10
235.0
 20
336.7591372734525
 30
0.0
  9
$LIMMIN
 10
0.0
 20
0.0
  9
$LIMMAX
 10
0.0
 20
0.0
  9
$ORTHOMODE
 70
     0
  9
$REGENMODE
 70
     1
  9
$FILLMODE
 70
     1
  9
$QTEXTMODE
 70
     0
  9
$MIRRTEXT
 70
     1
  9
$LTSCALE
 40
7.619999999999998
  9
$ATTMODE
 70
     1
  9
$TEXTSIZE
 40
0.0
  9
$TRACEWID
 40
1.0
  9
$TEXTSTYLE
  7
STANDARD
  9
$CLAYER
  8
DATA
  9
$CELTYPE
  6
ByLayer
  9
$CECOLOR
 62
   256
  9
$CELTSCALE
 40
1.0
  9
$DISPSILH
 70
     0
  9
$DIMSCALE
 40
1.0
  9
$DIMASZ
 40
0.18
  9
$DIMEXO
 40
0.0625
  9
$DIMDLI
 40
0.38
  9
$DIMRND
 40
0.0
  9
$DIMDLE
 40
0.0
  9
$DIMEXE
 40
0.18
  9
$DIMTP
 40
0.0
  9
$DIMTM
 40
0.0
  9
$DIMTXT
 40
0.18
  9
$DIMCEN
 40
0.09
  9
$DIMTSZ
 40
0.0
  9
$DIMTOL
 70
     0
  9
$DIMLIM
 70
     0
  9
$DIMTIH
 70
     1
  9
$DIMTOH
 70
     1
  9
$DIMSE1
 70
     0
  9
$DIMSE2
 70
     0
  9
$DIMTAD
 70
     0
  9
$DIMZIN
 70
     0
  9
$DIMBLK
  1

  9
$DIMASO
 70
     1
  9
$DIMSHO
 70
     1
  9
$DIMPOST
  1

  9
$DIMAPOST
  1

  9
$DIMALT
 70
     0
  9
$DIMALTD
 70
     2
  9
$DIMALTF
 40
25.4
  9
$DIMLFAC
 40
1.0
  9
$DIMTOFL
 70
     0
  9
$DIMTVP
 40
0.0
  9
$DIMTIX
 70
     0
  9
$DIMSOXD
 70
     0
  9
$DIMSAH
 70
     0
  9
$DIMBLK1
  1

  9
$DIMBLK2
  1

  9
$DIMSTYLE
  2
STANDARD
  9
$DIMCLRD
 70
     0
  9
$DIMCLRE
 70
     0
  9
$DIMCLRT
 70
     0
  9
$DIMTFAC
 40
1.0
  9
$DIMGAP
 40
0.09
  9
$DIMJUST
 70
     0
  9
$DIMSD1
 70
     0
  9
$DIMSD2
 70
     0
  9
$DIMTOLJ
 70
     1
  9
$DIMTZIN
 70
     0
  9
$DIMALTZ
 70
     0
  9
$DIMALTTZ
 70
     0
  9
$DIMUPT
 70
     0
  9
$DIMDEC
 70
     4
  9
$DIMTDEC
 70
     4
  9
$DIMALTU
 70
     2
  9
$DIMALTTD
 70
     2
  9
$DIMTXSTY
  7
STANDARD
  9
$DIMAUNIT
 70
     0
  9
$DIMADEC
 70
     0
  9
$DIMALTRND
 40
0.0
  9
$DIMAZIN
 70
     0
  9
$DIMDSEP
 70
    46
  9
$DIMATFIT
 70
     3
  9
$DIMFRAC
 70
     0
  9
$DIMLDRBLK
  1

  9
$DIMLUNIT
 70
     2
  9
$DIMLWD
 70
    -2
  9
$DIMLWE
 70
    -2
  9
$DIMTMOVE
 70
     0
  9
$LUNITS
 70
     2
  9
$LUPREC
 70
     4
  9
$SKETCHINC
 40
0.1
  9
$FILLETRAD
 40
0.0
  9
$AUNITS
 70
     0
  9
$AUPREC
 70
     0
  9
$MENU
  1
acad
  9
$ELEVATION
 40
0.0
  9
$PELEVATION
 40
0.0
  9
$THICKNESS
 40
0.0
  9
$LIMCHECK
 70
     0
  9
$CHAMFERA
 40
0.0
  9
$CHAMFERB
 40
0.0
  9
$CHAMFERC
 40
0.0
  9
$CHAMFERD
 40
0.0
  9
$SKPOLY
 70
     0
  9
$TDCREATE
 40
2455281.429502315
  9
$TDUCREATE
 40
2455281.054502315
  9
$TDUPDATE
 40
2455281.433486921
  9
$TDUUPDATE
 40
2455281.058486921
  9
$TDINDWG
 40
0.0015721644
  9
$TDUSRTIMER
 40
0.0015719907
  9
$USRTIMER
 70
     1
  9
$ANGBASE
 50
0.0
  9
$ANGDIR
 70
     0
  9
$PDMODE
 70
     1
  9
$PDSIZE
 40
-2.0
  9
$PLINEWID
 40
0.0
  9
$SPLFRAME
 70
     0
  9
$SPLINETYPE
 70
     6
  9
$SPLINESEGS
 70
     8
  9
$HANDSEED
  5
3E8
  9
$SURFTAB1
 70
     6
  9
$SURFTAB2
 70
     6
  9
$SURFTYPE
 70
     6
  9
$SURFU
 70
     6
  9
$SURFV
 70
     6
  9
$UCSBASE
  2

  9
$UCSNAME
  2

  9
$UCSORG
 10
0.0
 20
0.0
 30
0.0
  9
$UCSXDIR
 10
1.0
 20
0.0
 30
0.0
  9
$UCSYDIR
 10
0.0
 20
1.0
 30
0.0
  9
$UCSORTHOREF
  2

  9
$UCSORTHOVIEW
 70
     0
  9
$UCSORGTOP
 10
0.0
 20
0.0
 30
0.0
  9
$UCSORGBOTTOM
 10
0.0
 20
0.0
 30
0.0
  9
$UCSORGLEFT
 10
0.0
 20
0.0
 30
0.0
  9
$UCSORGRIGHT
 10
0.0
 20
0.0
 30
0.0
  9
$UCSORGFRONT
 10
0.0
 20
0.0
 30
0.0
  9
$UCSORGBACK
 10
0.0
 20
0.0
 30
0.0
  9
$PUCSBASE
  2

  9
$PUCSNAME
  2

  9
$PUCSORG
 10
0.0
 20
0.0
 30
0.0
  9
$PUCSXDIR
 10
1.0
 20
0.0
 30
0.0
  9
$PUCSYDIR
 10
0.0
 20
1.0
 30
0.0
  9
$PUCSORTHOREF
  2

  9
$PUCSORTHOVIEW
 70
     0
  9
$PUCSORGTOP
 10
0.0
 20
0.0
 30
0.0
  9
$PUCSORGBOTTOM
 10
0.0
 20
0.0
 30
0.0
  9
$PUCSORGLEFT
 10
0.0
 20
0.0
 30
0.0
  9
$PUCSORGRIGHT
 10
0.0
 20
0.0
 30
0.0
  9
$PUCSORGFRONT
 10
0.0
 20
0.0
 30
0.0
  9
$PUCSORGBACK
 10
0.0
 20
0.0
 30
0.0
  9
$USERI1
 70
     0
  9
$USERI2
 70
     0
  9
$USERI3
 70
     0
  9
$USERI4
 70
     0
  9
$USERI5
 70
     0
  9
$USERR1
 40
0.0
  9
$USERR2
 40
0.0
  9
$USERR3
 40
0.0
  9
$USERR4
 40
0.0
  9
$USERR5
 40
0.0
  9
$WORLDVIEW
 70
     1
  9
$SHADEDGE
 70
     3
  9
$SHADEDIF
 70
    70
  9
$TILEMODE
 70
     1
  9
$MAXACTVP
 70
    64
  9
$PINSBASE
 10
0.0
 20
0.0
 30
0.0
  9
$PLIMCHECK
 70
     0
  9
$PEXTMIN
 10
1.000000000000000E+20
 20
1.000000000000000E+20
 30
1.000000000000000E+20
  9
$PEXTMAX
 10
-1.000000000000000E+20
 20
-1.000000000000000E+20
 30
-1.000000000000000E+20
  9
$PLIMMIN
 10
0.0
 20
0.0
  9
$PLIMMAX
 10
12.0
 20
9.0
  9
$UNITMODE
 70
     0
  9
$VISRETAIN
 70
     0
  9
$PLINEGEN
 70
     1
  9
$PSLTSCALE
 70
     0
  9
$TREEDEPTH
 70
  3020
  9
$CMLSTYLE
  2
Standard
  9
$CMLJUST
 70
     0
  9
$CMLSCALE
 40
1.0
  9
$PROXYGRAPHICS
 70
     1
  9
$MEASUREMENT
 70
     0
  9
$CELWEIGHT
370
    -1
  9
$ENDCAPS
280
     0
  9
$JOINSTYLE
280
     0
  9
$LWDISPLAY
290
     0
  9
$INSUNITS
 70
     0
  9
$HYPERLINKBASE
  1

  9
$STYLESHEET
  1

  9
$XEDIT
290
     1
  9
$CEPSNTYPE
380
     0
  9
$PSTYLEMODE
290
     1
  9
$FINGERPRINTGUID
  2
{CA68B054-0FCC-4691-A529-6E8501F231A3}
  9
$VERSIONGUID
  2
{7DC2FA4A-1BB6-48E7-B224-FAB975C3E93C}
  9
$EXTNAMES
290
     1
  9
$PSVPSCALE
 40
0.0
  9
$OLESTARTUP
290
     0
  0
ENDSEC
  0
SECTION
  2
CLASSES
  0
CLASS
  1
ACDBDICTIONARYWDFLT
  2
AcDbDictionaryWithDefault
  3
ObjectDBX Classes
 90
        0
280
     0
281
     0
  0
CLASS
  1
MATERIAL
  2
AcDbMaterial
  3
ObjectDBX Classes
 90
     1153
280
     0
281
     0
  0
CLASS
  1
VISUALSTYLE
  2
AcDbVisualStyle
  3
ObjectDBX Classes
 90
     4095
280
     0
281
     0
  0
CLASS
  1
SCALE
  2
AcDbScale
  3
ObjectDBX Classes
 90
     1153
280
     0
281
     0
  0
CLASS
  1
TABLESTYLE
  2
AcDbTableStyle
  3
ObjectDBX Classes
 90
     4095
280
     0
281
     0
  0
CLASS
  1
MLEADERSTYLE
  2
AcDbMLeaderStyle
  3
ACDB_MLEADERSTYLE_CLASS
 90
     4095
280
     0
281
     0
  0
CLASS
  1
DICTIONARYVAR
  2
AcDbDictionaryVar
  3
ObjectDBX Classes
 90
        0
280
     0
281
     0
  0
CLASS
  1
CELLSTYLEMAP
  2
AcDbCellStyleMap
  3
ObjectDBX Classes
 90
     1152
280
     0
281
     0
  0
CLASS
  1
ACDBPLACEHOLDER
  2
AcDbPlaceHolder
  3
ObjectDBX Classes
 90
        0
280
     0
281
     0
  0
CLASS
  1
LAYOUT
  2
AcDbLayout
  3
ObjectDBX Classes
 90
        0
280
     0
281
     0
  0
ENDSEC
  0
SECTION
  2
TABLES
  0
TABLE
  2
VPORT
  5
325
330
0
100
AcDbSymbolTable
 70
     1
  0
VPORT
  5
398
330
325
100
AcDbSymbolTableRecord
100
AcDbViewportTableRecord
  2
*ACTIVE
 70
     0
 10
0.0
 20
0.0
 11
1.0
 21
1.0
 12
100.0000012573239
 22
136.0844485182444
 13
0.0
 23
0.0
 14
1.0
 24
1.0
 15
0.0
 25
0.0
 16
0.0
 26
0.0
 36
1.0
 17
0.0
 27
0.0
 37
0.0
 40
404.3606763627527
 41
1.966748768472906
 42
50.0
 43
0.0
 44
0.0
 50
0.0
 51
0.0
 71
     0
 72
  2000
 73
     1
 74
     1
 75
     0
 76
     0
 77
     0
 78
     0
281
     0
 65
     1
110
0.0
120
0.0
130
0.0
111
1.0
121
0.0
131
0.0
112
0.0
122
1.0
132
0.0
 79
     0
146
0.0
  0
ENDTAB
  0
TABLE
  2
LTYPE
  5
322
330
0
100
AcDbSymbolTable
 70
     1
  0
LTYPE
  5
382
330
322
100
AcDbSymbolTableRecord
100
AcDbLinetypeTableRecord
  2
ByBlock
 70
     0
  3

 72
    65
 73
     0
 40
0.0
  0
LTYPE
  5
383
330
322
100
AcDbSymbolTableRecord
100
AcDbLinetypeTableRecord
  2
ByLayer
 70
     0
  3

 72
    65
 73
     0
 40
0.0
  0
LTYPE
  5
384
330
322
100
AcDbSymbolTableRecord
100
AcDbLinetypeTableRecord
  2
CONTINUOUS
 70
     0
  3
Solid line
 72
    65
 73
     0
 40
0.0
  0
ENDTAB
  0
TABLE
  2
LAYER
  5
31F
330
0
100
AcDbSymbolTable
 70
     5
  0
LAYER
  5
37C
102
{ACAD_XDICTIONARY
360
3A4
102
}
330
31F
100
AcDbSymbolTableRecord
100
AcDbLayerTableRecord
  2
0
 70
     0
 62
     7
  6
CONTINUOUS
370
    -3
390
32C
  0
LAYER
  5
397
102
{ACAD_XDICTIONARY
360
3A6
102
}
330
31F
100
AcDbSymbolTableRecord
100
AcDbLayerTableRecord
  2
DATA
 70
     0
 62
     7
  6
CONTINUOUS
370
    -3
390
32C
  0
LAYER
  5
399
102
{ACAD_XDICTIONARY
360
3A8
102
}
330
31F
100
AcDbSymbolTableRecord
100
AcDbLayerTableRecord
  2
HIBINO-BASE
 70
     0
 62
     7
  6
CONTINUOUS
370
    -3
390
32C
  0
LAYER
  5
39A
102
{ACAD_XDICTIONARY
360
3AA
102
}
330
31F
100
AcDbSymbolTableRecord
100
AcDbLayerTableRecord
  2
SPEC
 70
     0
 62
     7
  6
CONTINUOUS
370
    -3
390
32C
  0
LAYER
  5
39B
102
{ACAD_XDICTIONARY
360
3AC
102
}
330
31F
100
AcDbSymbolTableRecord
100
AcDbLayerTableRecord
  2
DIMNSIONS
 70
     0
 62
     7
  6
CONTINUOUS
370
    -3
390
32C
  0
ENDTAB
  0
TABLE
  2
STYLE
  5
320
330
0
100
AcDbSymbolTable
 70
     2
  0
STYLE
  5
37D
330
320
100
AcDbSymbolTableRecord
100
AcDbTextStyleTableRecord
  2
STANDARD
 70
     0
 40
0.0
 41
1.0
 50
0.0
 71
     0
 42
0.0
  3
txt
  4
BIGFONT.SHX
  0
ENDTAB
  0
TABLE
  2
VIEW
  5
323
330
0
100
AcDbSymbolTable
 70
     0
  0
ENDTAB
  0
TABLE
  2
UCS
  5
324
330
0
100
AcDbSymbolTable
 70
     0
  0
ENDTAB
  0
TABLE
  2
APPID
  5
326
330
0
100
AcDbSymbolTable
 70
     3
  0
APPID
  5
37E
330
326
100
AcDbSymbolTableRecord
100
AcDbRegAppTableRecord
  2
ACAD
 70
     0
  0
APPID
  5
385
330
326
100
AcDbSymbolTableRecord
100
AcDbRegAppTableRecord
  2
ACADANNOTATIVE
 70
     0
  0
APPID
  5
39C
330
326
100
AcDbSymbolTableRecord
100
AcDbRegAppTableRecord
  2
ACAD_MLEADERVER
 70
     0
  0
ENDTAB
  0
TABLE
  2
DIMSTYLE
  5
327
330
0
100
AcDbSymbolTable
 70
     2
100
AcDbDimStyleTable
 71
     0
  0
DIMSTYLE
105
37F
330
327
100
AcDbSymbolTableRecord
100
AcDbDimStyleTableRecord
  2
STANDARD
 70
     0
279
     2
340
37D
  0
ENDTAB
  0
TABLE
  2
BLOCK_RECORD
  5
31E
330
0
100
AcDbSymbolTable
 70
     2
  0
BLOCK_RECORD
  5
393
330
31E
100
AcDbSymbolTableRecord
100
AcDbBlockTableRecord
  2
*Model_Space
340
396
  0
BLOCK_RECORD
  5
38F
330
31E
100
AcDbSymbolTableRecord
100
AcDbBlockTableRecord
  2
*Paper_Space
340
392
  0
ENDTAB
  0
ENDSEC
  0
SECTION
  2
BLOCKS
  0
BLOCK
  5
394
330
393
100
AcDbEntity
  8
0
100
AcDbBlockBegin
  2
*Model_Space
 70
     0
 10
0.0
 20
0.0
 30
0.0
  3
*Model_Space
  1

  0
ENDBLK
  5
395
330
393
100
AcDbEntity
  8
0
100
AcDbBlockEnd
  0
BLOCK
  5
390
330
38F
100
AcDbEntity
 67
     1
  8
0
100
AcDbBlockBegin
  2
*Paper_Space
 70
     0
 10
0.0
 20
0.0
 30
0.0
  3
*Paper_Space
  1

  0
ENDBLK
  5
391
330
38F
100
AcDbEntity
 67
     1
  8
0
100
AcDbBlockEnd
  0
ENDSEC
  0
SECTION
  2
ENTITIES
  0
LINE
  5
2D
330
393
100
AcDbEntity
  8
HIBINO-BASE
  6
Continuous
 62
     7
100
AcDbLine
 10
-35.0
 20
336.7591372734525
 30
0.0
 11
235.0
 21
336.7591372734525
 31
0.0
  0
LINE
  5
2E
330
393
100
AcDbEntity
  8
HIBINO-BASE
  6
Continuous
 62
     7
100
AcDbLine
 10
235.0
 20
-53.24086272654742
 30
0.0
 11
-35.0
 21
-53.24086272654742
 31
0.0
  0
LINE
  5
2F
330
393
100
AcDbEntity
  8
HIBINO-BASE
  6
Continuous
 62
     7
100
AcDbLine
 10
-35.0
 20
-53.24086272654742
 30
0.0
 11
-35.0
 21
336.7591372734525
 31
0.0
  0
LINE
  5
30
330
393
100
AcDbEntity
  8
HIBINO-BASE
  6
Continuous
 62
     7
100
AcDbLine
 10
235.0
 20
336.7591372734525
 30
0.0
 11
235.0
 21
-53.24086272654742
 31
0.0
  0
LINE
  5
31
330
393
100
AcDbEntity
  8
HIBINO-BASE
  6
Continuous
 62
     7
100
AcDbLine
 10
100.0
 20
-19.49086272654739
 30
0.0
 11
235.0
 21
-19.49086272654739
 31
0.0
  0
LINE
  5
32
330
393
100
AcDbEntity
  8
HIBINO-BASE
  6
Continuous
 62
     7
100
AcDbLine
 10
100.0
 20
-53.24086272654742
 30
0.0
 11
100.0
 21
-19.49086272654739
 31
0.0
  0
TEXT
  5
33
330
393
100
AcDbEntity
  8
HIBINO-BASE
 62
     7
100
AcDbText
 10
101.35
 20
-23.25390272654741
 30
0.0
 40
2.44326171875
  1
NOTE
 41
0.7
 11
101.35
 21
-20.81064100779741
 31
0.0
100
AcDbText
 73
     3
  0
LINE
  5
34
330
393
100
AcDbEntity
  8
HIBINO-BASE
  6
Continuous
 62
     7
100
AcDbLine
 10
152.5
 20
-53.24086272654742
 30
0.0
 11
152.5
 21
-19.49086272654739
 31
0.0
  0
TEXT
  5
35
330
393
100
AcDbEntity
  8
HIBINO-BASE
 62
     7
100
AcDbText
 10
153.8499999999999
 20
-23.25390272654741
 30
0.0
 40
2.44326171875
  1
TITLE
 41
0.7
 11
153.8499999999999
 21
-20.81064100779741
 31
0.0
100
AcDbText
 73
     3
  0
LINE
  5
36
330
393
100
AcDbEntity
  8
HIBINO-BASE
  6
Continuous
 62
     7
100
AcDbLine
 10
100.0
 20
-38.24086272654739
 30
0.0
 11
235.0
 21
-38.24086272654739
 31
0.0
  0
TEXT
  5
37
330
393
100
AcDbEntity
  8
HIBINO-BASE
 62
     7
100
AcDbText
 10
172.5999999999999
 20
-41.9194227265474
 30
0.0
 40
2.44326171875
  1
DRAWN
 41
0.7
 11
172.5999999999999
 21
-39.4761610077974
 31
0.0
100
AcDbText
 73
     3
  0
TEXT
  5
38
330
393
100
AcDbEntity
  8
HIBINO-BASE
 62
     7
100
AcDbText
 10
135.0999999999999
 20
-41.9194227265474
 30
0.0
 40
2.44326171875
  1
DATE
 41
0.7
 11
135.0999999999999
 21
-39.4761610077974
 31
0.0
100
AcDbText
 73
     3
  0
TEXT
  5
39
330
393
100
AcDbEntity
  8
HIBINO-BASE
 62
     7
100
AcDbText
 10
120.1
 20
-41.9194227265474
 30
0.0
 40
2.44326171875
  1
SCALE
 41
0.7
 11
120.1
 21
-39.4761610077974
 31
0.0
100
AcDbText
 73
     3
  0
TEXT
  5
3A
330
393
100
AcDbEntity
  8
HIBINO-BASE
 62
     7
100
AcDbText
 10
153.8499999999999
 20
-41.9194227265474
 30
0.0
 40
2.44326171875
  1
DESIGN
 41
0.7
 11
153.8499999999999
 21
-39.4761610077974
 31
0.0
100
AcDbText
 73
     3
  0
TEXT
  5
3B
330
393
100
AcDbEntity
  8
HIBINO-BASE
 62
     7
100
AcDbText
 10
210.1
 20
-41.9194227265474
 30
0.0
 40
2.44326171875
  1
DRAWING NO.
 41
0.7
 11
210.1
 21
-39.4761610077974
 31
0.0
100
AcDbText
 73
     3
  0
TEXT
  5
3C
330
393
100
AcDbEntity
  8
HIBINO-BASE
 62
     7
100
AcDbText
 10
191.35
 20
-41.9194227265474
 30
0.0
 40
2.44326171875
  1
CHECK
 41
0.7
 11
191.35
 21
-39.4761610077974
 31
0.0
100
AcDbText
 73
     3
  0
LINE
  5
3D
330
393
100
AcDbEntity
  8
HIBINO-BASE
  6
Continuous
 62
     7
100
AcDbLine
 10
121.5625
 20
-51.36586272654742
 30
0.0
 11
127.1875
 21
-45.74086272654739
 31
0.0
  0
TEXT
  5
3E
330
393
100
AcDbEntity
  8
HIBINO-BASE
 62
     7
100
AcDbText
 10
120.625
 20
-47.40427772654736
 30
0.0
 40
2.44326171875
  1
1
 41
0.7
 11
120.625
 21
-44.96101600779735
 31
0.0
100
AcDbText
 73
     3
  0
LINE
  5
3F
330
393
100
AcDbEntity
  8
HIBINO-BASE
  6
Continuous
 62
     7
100
AcDbLine
 10
118.75
 20
-53.24086272654742
 30
0.0
 11
118.75
 21
-38.24086272654739
 31
0.0
  0
LINE
  5
40
330
393
100
AcDbEntity
  8
HIBINO-BASE
  6
Continuous
 62
     7
100
AcDbLine
 10
133.7499999999998
 20
-53.24086272654742
 30
0.0
 11
133.7499999999998
 21
-38.24086272654739
 31
0.0
  0
LINE
  5
41
330
393
100
AcDbEntity
  8
HIBINO-BASE
  6
Continuous
 62
     7
100
AcDbLine
 10
171.2499999999998
 20
-38.24086272654739
 30
0.0
 11
171.2499999999998
 21
-53.24086272654742
 31
0.0
  0
LINE
  5
42
330
393
100
AcDbEntity
  8
HIBINO-BASE
  6
Continuous
 62
     7
100
AcDbLine
 10
208.75
 20
-38.24086272654739
 30
0.0
 11
208.75
 21
-53.24086272654742
 31
0.0
  0
LINE
  5
43
330
393
100
AcDbEntity
  8
HIBINO-BASE
  6
Continuous
 62
     7
100
AcDbLine
 10
190.0
 20
-53.24086272654742
 30
0.0
 11
190.0
 21
-38.24086272654739
 31
0.0
  0
TEXT
  5
44
330
393
100
AcDbEntity
  8
HIBINO-BASE
 62
     7
100
AcDbText
 10
135.03481
 20
-48.94539272654739
 30
0.0
 40
2.44326171875
  1
'10.03.
 41
0.7
 11
135.03481
 21
-46.5021310077974
 31
0.0
100
AcDbText
 73
     3
  0
TEXT
  5
45
330
393
100
AcDbEntity
  8
HIBINO-BASE
 62
     7
100
AcDbText
 10
126.25
 20
-50.21677772654738
 30
0.0
 40
2.44326171875
  1
1.5
 41
0.7
 11
126.25
 21
-47.77351600779738
 31
0.0
100
AcDbText
 73
     3
  0
TEXT
  5
46
330
393
100
AcDbEntity
  8
HIBINO-BASE
 62
     7
100
AcDbText
 10
105.825
 20
-50.27686272654739
 30
0.0
 40
4.886523437499999
  1
A4
 41
0.7
 11
105.825
 21
-45.39033928904739
 31
0.0
100
AcDbText
 73
     3
  0
TEXT
  5
47
330
393
100
AcDbEntity
  8
HIBINO-BASE
 62
     7
100
AcDbText
 10
101.4375
 20
-42.17004522654742
 30
0.0
 40
2.44326171875
  1
PAPER SIZE
 41
0.7
 11
101.4375
 21
-39.72678350779742
 31
0.0
100
AcDbText
 73
     3
  0
TEXT
  5
48
330
393
100
AcDbEntity
  8
HIBINO-BASE
 62
     7
100
AcDbText
 10
-30.62868387980281
 20
-62.83260303392955
 30
0.0
 40
5.293733723958331
  1
Hibino-Intersound Corporation
 41
0.7
 11
-30.62868387980281
 21
-57.53886930997122
 31
0.0
100
AcDbText
 73
     3
  0
TEXT
  5
49
330
393
100
AcDbEntity
  8
HIBINO-BASE
 62
     7
100
AcDbText
 10
130.9689499059817
 20
-62.36709453324063
 30
0.0
 40
5.293733723958331
  1
ヒビノインターサウンド株式会社
 41
0.7
 11
130.9689499059817
 21
-57.07336080928229
 31
0.0
100
AcDbText
 73
     3
  0
TEXT
  5
4A
330
393
100
AcDbEntity
  8
HIBINO-BASE
 62
     7
100
AcDbText
 10
172.9396339498101
 20
-48.87637897360889
 30
0.0
 40
2.44326171875
  1
T.Ootake
 41
0.7
 11
172.9396339498101
 21
-46.43311725485889
 31
0.0
100
AcDbText
 73
     3
  0
LINE
  5
4B
330
393
100
AcDbEntity
  8
SPEC
  6
Continuous
 62
     7
100
AcDbLine
 10
-23.74999999999999
 20
321.7591372734525
 30
0.0
 11
197.5
 21
321.7591372734525
 31
0.0
  0
LINE
  5
4C
330
393
100
AcDbEntity
  8
SPEC
  6
Continuous
 62
     7
100
AcDbLine
 10
-23.74999999999999
 20
316.1341372734525
 30
0.0
 11
197.5
 21
316.1341372734525
 31
0.0
  0
LINE
  5
4D
330
393
100
AcDbEntity
  8
SPEC
  6
Continuous
 62
     7
100
AcDbLine
 10
-23.74999999999999
 20
304.8841372734525
 30
0.0
 11
197.5
 21
304.8841372734525
 31
0.0
  0
LINE
  5
4E
330
393
100
AcDbEntity
  8
SPEC
  6
Continuous
 62
     7
100
AcDbLine
 10
-23.74999999999999
 20
310.5091372734525
 30
0.0
 11
197.5
 21
310.5091372734525
 31
0.0
  0
LINE
  5
4F
330
393
100
AcDbEntity
  8
SPEC
  6
Continuous
 62
     7
100
AcDbLine
 10
-23.74999999999999
 20
321.7591372734525
 30
0.0
 11
-23.74999999999999
 21
304.8841372734525
 31
0.0
  0
TEXT
  5
50
330
393
100
AcDbEntity
  8
SPEC
 62
     7
100
AcDbText
 10
-21.87499999999999
 20
323.8490422734527
 30
0.0
 40
3.664892578124999
  1
仕様
 41
0.7
 11
-21.87499999999999
 21
327.5139348515776
 31
0.0
100
AcDbText
 73
     3
  0
LINE
  5
51
330
393
100
AcDbEntity
  8
SPEC
  6
Continuous
 62
     7
100
AcDbLine
 10
25.0
 20
321.7591372734525
 30
0.0
 11
25.0
 21
304.8841372734525
 31
0.0
  0
LINE
  5
52
330
393
100
AcDbEntity
  8
SPEC
  6
Continuous
 62
     7
100
AcDbLine
 10
197.5
 20
321.7591372734525
 30
0.0
 11
197.5
 21
304.8841372734525
 31
0.0
  0
TEXT
  5
53
330
393
100
AcDbEntity
  8
SPEC
 62
     7
100
AcDbText
 10
-22.40000000000001
 20
317.3160139401193
 30
0.0
 40
2.850472005208331
  1
HDMI入出力端子
 41
0.7
 11
-22.40000000000001
 21
320.1664859453276
 31
0.0
100
AcDbText
 73
     3
  0
TEXT
  5
54
330
393
100
AcDbEntity
  8
SPEC
 62
     7
100
AcDbText
 10
-22.41726833107644
 20
312.0509384441937
 30
0.0
 40
2.850472005208331
  1
寸法
 41
0.7
 11
-22.41726833107644
 21
314.901410449402
 31
0.0
100
AcDbText
 73
     3
  0
TEXT
  5
55
330
393
100
AcDbEntity
  8
SPEC
 62
     7
100
AcDbText
 10
-22.38656082088635
 20
306.3774630518214
 30
0.0
 40
2.850472005208331
  1
重量
 41
0.7
 11
-22.38656082088635
 21
309.2279350570297
 31
0.0
100
AcDbText
 73
     3
  0
TEXT
  5
56
330
393
100
AcDbEntity
  8
SPEC
 62
     7
100
AcDbText
 10
26.39968051268045
 20
311.9456987328707
 30
0.0
 40
2.850472005208331
  1
71(W)\U+00D7115(H)\U+00D733(D)mm(突起部含まず)
 41
0.7
 11
26.39968051268045
 21
314.796170738079
 31
0.0
100
AcDbText
 73
     3
  0
TEXT
  5
57
330
393
100
AcDbEntity
  8
SPEC
 62
     7
100
AcDbText
 10
26.34423344892804
 20
306.5306430515595
 30
0.0
 40
2.850472005208331
  1
約70g
 41
0.7
 11
26.34423344892804
 21
309.3811150567679
 31
0.0
100
AcDbText
 73
     3
  0
TEXT
  5
58
330
393
100
AcDbEntity
  8
SPEC
 62
     7
100
AcDbText
 10
26.5008834961228
 20
317.3704361019229
 30
0.0
 40
2.850472005208331
  1
type A 19pin
 41
0.7
 11
26.5008834961228
 21
320.2209081071312
 31
0.0
100
AcDbText
 73
     3
  0
TEXT
  5
59
330
393
100
AcDbEntity
  8
DIMNSIONS
 62
     7
100
AcDbText
 10
69.99999999999999
 20
-34.83662772654739
 30
0.0
 40
3.664892578124999
  1
(単位：mm)
 41
0.7
 11
69.99999999999999
 21
-31.17173514842239
 31
0.0
100
AcDbText
 73
     3
  0
LINE
  5
5A
330
393
100
AcDbEntity
  8
DIMNSIONS
  6
Continuous
 62
     7
100
AcDbLine
 10
6.375
 20
31.25
 30
0.0
 11
-15.5
 21
31.25
 31
0.0
  0
LINE
  5
5B
330
393
100
AcDbEntity
  8
DIMNSIONS
  6
Continuous
 62
     7
100
AcDbLine
 10
6.375
 20
146.25
 30
0.0
 11
-15.5
 21
146.25
 31
0.0
  0
LINE
  5
5C
330
393
100
AcDbEntity
  8
DIMNSIONS
  6
Continuous
 62
     7
100
AcDbLine
 10
-12.5
 20
31.25
 30
0.0
 11
-12.5
 21
146.25
 31
0.0
  0
LINE
  5
5D
330
393
100
AcDbEntity
  8
DIMNSIONS
  6
Continuous
 62
     7
100
AcDbLine
 10
-12.5
 20
31.25
 30
0.0
 11
-13.50505969272537
 21
35.00093383789063
 31
0.0
  0
LINE
  5
5E
330
393
100
AcDbEntity
  8
DIMNSIONS
  6
Continuous
 62
     7
100
AcDbLine
 10
-12.5
 20
31.25
 30
0.0
 11
-11.49494030727463
 21
35.00093383789063
 31
0.0
  0
LINE
  5
5F
330
393
100
AcDbEntity
  8
DIMNSIONS
  6
Continuous
 62
     7
100
AcDbLine
 10
-12.5
 20
146.25
 30
0.0
 11
-11.49494030727463
 21
142.4990661621094
 31
0.0
  0
LINE
  5
60
330
393
100
AcDbEntity
  8
DIMNSIONS
  6
Continuous
 62
     7
100
AcDbLine
 10
-12.5
 20
146.25
 30
0.0
 11
-13.50505969272537
 21
142.4990661621094
 31
0.0
  0
TEXT
  5
61
330
393
100
AcDbEntity
  8
DIMNSIONS
 62
     7
100
AcDbText
 10
-13.99083333333331
 20
84.78125
 30
0.0
 40
4.072102864583333
  1
115
 50
90.0
 41
0.7
 11
-18.06293619791665
 21
84.78125
 31
0.0
100
AcDbText
 73
     3
  0
LINE
  5
62
330
393
100
AcDbEntity
  8
DIMNSIONS
  6
Continuous
 62
     7
100
AcDbLine
 10
9.375
 20
31.25
 30
0.0
 11
9.375
 21
6.375
 31
0.0
  0
LINE
  5
63
330
393
100
AcDbEntity
  8
DIMNSIONS
  6
Continuous
 62
     7
100
AcDbLine
 10
80.37499999999999
 20
31.25
 30
0.0
 11
80.37499999999999
 21
6.375
 31
0.0
  0
LINE
  5
64
330
393
100
AcDbEntity
  8
DIMNSIONS
  6
Continuous
 62
     7
100
AcDbLine
 10
9.375
 20
9.375
 30
0.0
 11
80.37499999999999
 21
9.375
 31
0.0
  0
LINE
  5
65
330
393
100
AcDbEntity
  8
DIMNSIONS
  6
Continuous
 62
     7
100
AcDbLine
 10
9.375
 20
9.375
 30
0.0
 11
13.12593383789063
 21
10.38005969272535
 31
0.0
  0
LINE
  5
66
330
393
100
AcDbEntity
  8
DIMNSIONS
  6
Continuous
 62
     7
100
AcDbLine
 10
9.375
 20
9.375
 30
0.0
 11
13.12593383789063
 21
8.369940307274646
 31
0.0
  0
LINE
  5
67
330
393
100
AcDbEntity
  8
DIMNSIONS
  6
Continuous
 62
     7
100
AcDbLine
 10
80.37499999999999
 20
9.375
 30
0.0
 11
76.62406616210937
 21
8.369940307274646
 31
0.0
  0
LINE
  5
68
330
393
100
AcDbEntity
  8
DIMNSIONS
  6
Continuous
 62
     7
100
AcDbLine
 10
80.37499999999999
 20
9.375
 30
0.0
 11
76.62406616210937
 21
10.38005969272535
 31
0.0
  0
TEXT
  5
69
330
393
100
AcDbEntity
  8
DIMNSIONS
 62
     7
100
AcDbText
 10
42.22916666666665
 20
10.86583333333334
 30
0.0
 40
4.072102864583333
  1
71
 41
0.7
 11
42.22916666666665
 21
14.93793619791667
 31
0.0
100
AcDbText
 73
     3
  0
LINE
  5
6A
330
393
100
AcDbEntity
  8
DIMNSIONS
  6
Continuous
 62
     7
100
AcDbLine
 10
36.875
 20
47.0
 30
0.0
 11
-6.125
 21
47.0
 31
0.0
  0
LINE
  5
6B
330
393
100
AcDbEntity
  8
DIMNSIONS
  6
Continuous
 62
     7
100
AcDbLine
 10
36.875
 20
130.5
 30
0.0
 11
-6.125
 21
130.5
 31
0.0
  0
LINE
  5
6C
330
393
100
AcDbEntity
  8
DIMNSIONS
  6
Continuous
 62
     7
100
AcDbLine
 10
-3.125
 20
47.0
 30
0.0
 11
-3.125
 21
130.5
 31
0.0
  0
LINE
  5
6D
330
393
100
AcDbEntity
  8
DIMNSIONS
  6
Continuous
 62
     7
100
AcDbLine
 10
-3.125
 20
47.0
 30
0.0
 11
-4.130059692725366
 21
50.75093383789063
 31
0.0
  0
LINE
  5
6E
330
393
100
AcDbEntity
  8
DIMNSIONS
  6
Continuous
 62
     7
100
AcDbLine
 10
-3.125
 20
47.0
 30
0.0
 11
-2.119940307274632
 21
50.75093383789063
 31
0.0
  0
LINE
  5
6F
330
393
100
AcDbEntity
  8
DIMNSIONS
  6
Continuous
 62
     7
100
AcDbLine
 10
-3.125
 20
130.5
 30
0.0
 11
-2.119940307274632
 21
126.7490661621093
 31
0.0
  0
LINE
  5
70
330
393
100
AcDbEntity
  8
DIMNSIONS
  6
Continuous
 62
     7
100
AcDbLine
 10
-3.125
 20
130.5
 30
0.0
 11
-4.130059692725366
 21
126.7490661621093
 31
0.0
  0
TEXT
  5
71
330
393
100
AcDbEntity
  8
DIMNSIONS
 62
     7
100
AcDbText
 10
-4.615833333333337
 20
83.45833333333333
 30
0.0
 40
4.072102864583333
  1
83.5
 50
90.0
 41
0.7
 11
-8.68793619791667
 21
83.45833333333333
 31
0.0
100
AcDbText
 73
     3
  0
LINE
  5
72
330
393
100
AcDbEntity
  8
DIMNSIONS
  6
Continuous
 62
     7
100
AcDbLine
 10
9.898796168636224
 20
178.125
 30
0.0
 11
-6.125
 21
178.125
 31
0.0
  0
LINE
  5
73
330
393
100
AcDbEntity
  8
DIMNSIONS
  6
Continuous
 62
     7
100
AcDbLine
 10
6.375000000000014
 20
183.725
 30
0.0
 11
-6.125
 21
183.725
 31
0.0
  0
LINE
  5
74
330
393
100
AcDbEntity
  8
DIMNSIONS
  6
Continuous
 62
     7
100
AcDbLine
 10
-3.125
 20
183.725
 30
0.0
 11
-3.125
 21
178.125
 31
0.0
  0
LINE
  5
75
330
393
100
AcDbEntity
  8
DIMNSIONS
  6
Continuous
 62
     7
100
AcDbLine
 10
-3.125
 20
178.125
 30
0.0
 11
-3.125
 21
170.625
 31
0.0
  0
LINE
  5
76
330
393
100
AcDbEntity
  8
DIMNSIONS
  6
Continuous
 62
     7
100
AcDbLine
 10
-3.125
 20
178.125
 30
0.0
 11
-2.119940307274632
 21
174.3740661621094
 31
0.0
  0
LINE
  5
77
330
393
100
AcDbEntity
  8
DIMNSIONS
  6
Continuous
 62
     7
100
AcDbLine
 10
-3.125
 20
178.125
 30
0.0
 11
-4.130059692725366
 21
174.3740661621094
 31
0.0
  0
LINE
  5
78
330
393
100
AcDbEntity
  8
DIMNSIONS
  6
Continuous
 62
     7
100
AcDbLine
 10
-3.125
 20
183.725
 30
0.0
 11
-3.125
 21
195.4375
 31
0.0
  0
LINE
  5
79
330
393
100
AcDbEntity
  8
DIMNSIONS
  6
Continuous
 62
     7
100
AcDbLine
 10
-3.125
 20
183.725
 30
0.0
 11
-4.130059692725366
 21
187.4759338378906
 31
0.0
  0
LINE
  5
7A
330
393
100
AcDbEntity
  8
DIMNSIONS
  6
Continuous
 62
     7
100
AcDbLine
 10
-3.125
 20
183.725
 30
0.0
 11
-2.119940307274632
 21
187.4759338378906
 31
0.0
  0
TEXT
  5
7B
330
393
100
AcDbEntity
  8
DIMNSIONS
 62
     7
100
AcDbText
 10
-4.615833333333323
 20
187.5
 30
0.0
 40
4.072102864583333
  1
5.6
 50
90.0
 41
0.7
 11
-8.687936197916656
 21
187.5
 31
0.0
100
AcDbText
 73
     3
  0
LINE
  5
7C
330
393
100
AcDbEntity
  8
DIMNSIONS
  6
Continuous
 62
     7
100
AcDbLine
 10
39.75394910858052
 20
173.125
 30
0.0
 11
-15.5
 21
173.125
 31
0.0
  0
LINE
  5
7D
330
393
100
AcDbEntity
  8
DIMNSIONS
  6
Continuous
 62
     7
100
AcDbLine
 10
-2.476203831363775
 20
178.125
 30
0.0
 11
-15.5
 21
178.125
 31
0.0
  0
LINE
  5
7E
330
393
100
AcDbEntity
  8
DIMNSIONS
  6
Continuous
 62
     7
100
AcDbLine
 10
-12.5
 20
178.125
 30
0.0
 11
-12.5
 21
173.125
 31
0.0
  0
LINE
  5
7F
330
393
100
AcDbEntity
  8
DIMNSIONS
  6
Continuous
 62
     7
100
AcDbLine
 10
-12.5
 20
173.125
 30
0.0
 11
-12.5
 21
166.1041666666666
 31
0.0
  0
LINE
  5
80
330
393
100
AcDbEntity
  8
DIMNSIONS
  6
Continuous
 62
     7
100
AcDbLine
 10
-12.5
 20
173.125
 30
0.0
 11
-11.49494030727463
 21
169.3740661621094
 31
0.0
  0
LINE
  5
81
330
393
100
AcDbEntity
  8
DIMNSIONS
  6
Continuous
 62
     7
100
AcDbLine
 10
-12.5
 20
173.125
 30
0.0
 11
-13.50505969272537
 21
169.3740661621094
 31
0.0
  0
LINE
  5
82
330
393
100
AcDbEntity
  8
DIMNSIONS
  6
Continuous
 62
     7
100
AcDbLine
 10
-12.5
 20
178.125
 30
0.0
 11
-12.5
 21
185.625
 31
0.0
  0
LINE
  5
83
330
393
100
AcDbEntity
  8
DIMNSIONS
  6
Continuous
 62
     7
100
AcDbLine
 10
-12.5
 20
178.125
 30
0.0
 11
-13.50505969272537
 21
181.8759338378906
 31
0.0
  0
LINE
  5
84
330
393
100
AcDbEntity
  8
DIMNSIONS
  6
Continuous
 62
     7
100
AcDbLine
 10
-12.5
 20
178.125
 30
0.0
 11
-11.49494030727463
 21
181.8759338378906
 31
0.0
  0
TEXT
  5
85
330
393
100
AcDbEntity
  8
DIMNSIONS
 62
     7
100
AcDbText
 10
-13.99083333333334
 20
166.1041666666667
 30
0.0
 40
4.072102864583333
  1
5
 50
90.0
 41
0.7
 11
-18.06293619791667
 21
166.1041666666667
 31
0.0
100
AcDbText
 73
     3
  0
LINE
  5
86
330
393
100
AcDbEntity
  8
DIMNSIONS
  6
Continuous
 62
     7
100
AcDbLine
 10
6.898796168636223
 20
178.125
 30
0.0
 11
-15.5
 21
178.125
 31
0.0
  0
LINE
  5
87
330
393
100
AcDbEntity
  8
DIMNSIONS
  6
Continuous
 62
     7
100
AcDbLine
 10
41.87499999999999
 20
211.125
 30
0.0
 11
-15.5
 21
211.125
 31
0.0
  0
LINE
  5
88
330
393
100
AcDbEntity
  8
DIMNSIONS
  6
Continuous
 62
     7
100
AcDbLine
 10
-12.5
 20
178.125
 30
0.0
 11
-12.5
 21
211.125
 31
0.0
  0
LINE
  5
89
330
393
100
AcDbEntity
  8
DIMNSIONS
  6
Continuous
 62
     7
100
AcDbLine
 10
-12.5
 20
178.125
 30
0.0
 11
-13.50505969272537
 21
181.8759338378906
 31
0.0
  0
LINE
  5
8A
330
393
100
AcDbEntity
  8
DIMNSIONS
  6
Continuous
 62
     7
100
AcDbLine
 10
-12.5
 20
178.125
 30
0.0
 11
-11.49494030727463
 21
181.8759338378906
 31
0.0
  0
LINE
  5
8B
330
393
100
AcDbEntity
  8
DIMNSIONS
  6
Continuous
 62
     7
100
AcDbLine
 10
-12.5
 20
211.125
 30
0.0
 11
-11.49494030727463
 21
207.3740661621094
 31
0.0
  0
LINE
  5
8C
330
393
100
AcDbEntity
  8
DIMNSIONS
  6
Continuous
 62
     7
100
AcDbLine
 10
-12.5
 20
211.125
 30
0.0
 11
-13.50505969272537
 21
207.3740661621094
 31
0.0
  0
TEXT
  5
8D
330
393
100
AcDbEntity
  8
DIMNSIONS
 62
     7
100
AcDbText
 10
-13.99083333333331
 20
191.9791666666666
 30
0.0
 40
4.072102864583333
  1
33
 50
90.0
 41
0.7
 11
-18.06293619791665
 21
191.9791666666666
 31
0.0
100
AcDbText
 73
     3
  0
TEXT
  5
8E
330
393
100
AcDbEntity
  8
DATA
 62
     7
100
AcDbText
 10
-19.99999999999997
 20
-46.88386272654743
 30
0.0
 40
2.44326171875
  1
仕様および外観は予告なく変更されることがありますので、ご了承ください。
 41
0.7
 11
-19.99999999999997
 21
-44.44060100779743
 31
0.0
100
AcDbText
 73
     3
  0
TEXT
  5
8F
330
393
100
AcDbEntity
  8
DATA
 62
     7
100
AcDbText
 10
174.775
 20
-36.63422966148786
 30
0.0
 40
3.664892578124999
  1
WP-HDMI-RA
 41
0.7
 11
174.775
 21
-32.96933708336286
 31
0.0
100
AcDbText
 73
     3
  0
TEXT
  5
90
330
393
100
AcDbEntity
  8
DATA
 62
     7
100
AcDbText
 10
174.8320650654141
 20
-24.72435440998117
 30
0.0
 40
3.664892578124999
  1
Gefen
 41
0.7
 11
174.8320650654141
 21
-21.05946183185617
 31
0.0
100
AcDbText
 73
     3
  0
TEXT
  5
91
330
393
100
AcDbEntity
  8
DATA
 62
     7
100
AcDbText
 10
171.85
 20
-30.25770451058388
 30
0.0
 40
2.44326171875
  1
HDMIウォールプレート
 41
0.7
 11
171.85
 21
-27.81444279183387
 31
0.0
100
AcDbText
 73
     3
  0
LINE
  5
92
330
393
100
AcDbEntity
  8
DATA
  6
Continuous
 62
     7
100
AcDbLine
 10
9.375
 20
34.25
 30
0.0
 11
9.375
 21
143.25
 31
0.0
  0
ARC
  5
93
330
393
100
AcDbEntity
  8
DATA
  6
Continuous
 62
     7
100
AcDbCircle
 10
12.375
 20
34.25
 30
0.0
 40
3.0
100
AcDbArc
 50
180.0
 51
270.0
  0
LINE
  5
94
330
393
100
AcDbEntity
  8
DATA
  6
Continuous
 62
     7
100
AcDbLine
 10
77.375
 20
31.25
 30
0.0
 11
12.375
 21
31.25
 31
0.0
  0
ARC
  5
95
330
393
100
AcDbEntity
  8
DATA
  6
Continuous
 62
     7
100
AcDbCircle
 10
77.375
 20
34.24999999999999
 30
0.0
 40
2.999999999999984
100
AcDbArc
 50
270.0
 51
0.0000000000002274
  0
LINE
  5
96
330
393
100
AcDbEntity
  8
DATA
  6
Continuous
 62
     7
100
AcDbLine
 10
80.37499999999999
 20
143.25
 30
0.0
 11
80.37499999999999
 21
34.25
 31
0.0
  0
ARC
  5
97
330
393
100
AcDbEntity
  8
DATA
  6
Continuous
 62
     7
100
AcDbCircle
 10
77.375
 20
143.25
 30
0.0
 40
3.0
100
AcDbArc
 50
0.0
 51
90.0
  0
LINE
  5
98
330
393
100
AcDbEntity
  8
DATA
  6
Continuous
 62
     7
100
AcDbLine
 10
12.375
 20
146.25
 30
0.0
 11
77.375
 21
146.25
 31
0.0
  0
ARC
  5
99
330
393
100
AcDbEntity
  8
DATA
  6
Continuous
 62
     7
100
AcDbCircle
 10
12.375
 20
143.25
 30
0.0
 40
3.0
100
AcDbArc
 50
90.0
 51
180.0
  0
CIRCLE
  5
9A
330
393
100
AcDbEntity
  8
DATA
  6
Continuous
 62
     7
100
AcDbCircle
 10
44.87499999999999
 20
130.5
 30
0.0
 40
2.6
  0
CIRCLE
  5
9B
330
393
100
AcDbEntity
  8
DATA
  6
Continuous
 62
     7
100
AcDbCircle
 10
44.87499999999999
 20
47.0
 30
0.0
 40
2.6
  0
CIRCLE
  5
9C
330
393
100
AcDbEntity
  8
DATA
  6
Continuous
 62
     7
100
AcDbCircle
 10
44.87499999999999
 20
130.5
 30
0.0
 40
5.0
  0
CIRCLE
  5
9D
330
393
100
AcDbEntity
  8
DATA
  6
Continuous
 62
     7
100
AcDbCircle
 10
44.87499999999999
 20
47.0
 30
0.0
 40
5.0
  0
LINE
  5
9E
330
393
100
AcDbEntity
  8
DATA
  6
Continuous
 62
     7
100
AcDbLine
 10
143.75
 20
34.25
 30
0.0
 11
143.75
 21
143.25
 31
0.0
  0
ARC
  5
9F
330
393
100
AcDbEntity
  8
DATA
  6
Continuous
 62
     7
100
AcDbCircle
 10
146.75
 20
34.25
 30
0.0
 40
2.999999999999984
100
AcDbArc
 50
180.0
 51
270.0000000000003
  0
LINE
  5
A0
330
393
100
AcDbEntity
  8
DATA
  6
Continuous
 62
     7
100
AcDbLine
 10
211.75
 20
31.25
 30
0.0
 11
146.75
 21
31.25
 31
0.0
  0
ARC
  5
A1
330
393
100
AcDbEntity
  8
DATA
  6
Continuous
 62
     7
100
AcDbCircle
 10
211.75
 20
34.25
 30
0.0
 40
3.0
100
AcDbArc
 50
270.0
 51
0.0
  0
LINE
  5
A2
330
393
100
AcDbEntity
  8
DATA
  6
Continuous
 62
     7
100
AcDbLine
 10
214.75
 20
143.25
 30
0.0
 11
214.75
 21
34.25
 31
0.0
  0
ARC
  5
A3
330
393
100
AcDbEntity
  8
DATA
  6
Continuous
 62
     7
100
AcDbCircle
 10
211.75
 20
143.25
 30
0.0
 40
3.0
100
AcDbArc
 50
0.0
 51
90.0
  0
LINE
  5
A4
330
393
100
AcDbEntity
  8
DATA
  6
Continuous
 62
     7
100
AcDbLine
 10
146.75
 20
146.25
 30
0.0
 11
211.75
 21
146.25
 31
0.0
  0
ARC
  5
A5
330
393
100
AcDbEntity
  8
DATA
  6
Continuous
 62
     7
100
AcDbCircle
 10
146.75
 20
143.25
 30
0.0
 40
3.0
100
AcDbArc
 50
90.0
 51
180.0
  0
CIRCLE
  5
A6
330
393
100
AcDbEntity
  8
DATA
  6
Continuous
 62
     7
100
AcDbCircle
 10
179.25
 20
130.5
 30
0.0
 40
2.600000000000008
  0
CIRCLE
  5
A7
330
393
100
AcDbEntity
  8
DATA
  6
Continuous
 62
     7
100
AcDbCircle
 10
179.25
 20
47.0
 30
0.0
 40
2.600000000000008
  0
CIRCLE
  5
A8
330
393
100
AcDbEntity
  8
DATA
  6
Continuous
 62
     7
100
AcDbCircle
 10
179.25
 20
130.5
 30
0.0
 40
5.0
  0
CIRCLE
  5
A9
330
393
100
AcDbEntity
  8
DATA
  6
Continuous
 62
     7
100
AcDbCircle
 10
179.25
 20
47.0
 30
0.0
 40
5.0
  0
LINE
  5
AA
330
393
100
AcDbEntity
  8
DATA
  6
Continuous
 62
     7
100
AcDbLine
 10
128.125
 20
142.8
 30
0.0
 11
128.125
 21
34.6999999999999
 31
0.0
  0
LINE
  5
AB
330
393
100
AcDbEntity
  8
DATA
  6
Continuous
 62
     7
100
AcDbLine
 10
122.525
 20
146.25
 30
0.0
 11
122.525
 21
31.24999999999989
 31
0.0
  0
ARC
  5
AC
330
393
100
AcDbEntity
  8
DATA
  6
Continuous
 62
     7
100
AcDbCircle
 10
122.7578753095828
 20
140.3580729662793
 30
0.0
 40
5.896527374692809
100
AcDbArc
 50
24.46452065473169
 51
92.26340734801317
  0
ARC
  5
AD
330
393
100
AcDbEntity
  8
DATA
  6
Continuous
 62
     7
100
AcDbCircle
 10
122.7578753095828
 20
37.14192703372066
 30
0.0
 40
5.896527374692807
100
AcDbArc
 50
267.7365926519868
 51
335.5354793452683
  0
LWPOLYLINE
  5
AE
330
393
100
AcDbEntity
  8
DATA
  6
Continuous
 62
     7
100
AcDbPolyline
 90
        4
 70
     0
 43
0.0
 10
52.88620183405856
 20
88.65977618230377
 10
52.88620183405856
 20
92.65977618230385
 10
36.88620183405844
 20
92.65977618230385
 10
36.88620183405844
 20
88.65977618230377
  0
LINE
  5
B5
330
393
100
AcDbEntity
  8
DATA
  6
Continuous
 62
     7
100
AcDbLine
 10
39.3862018340589
 20
86.65977618230384
 30
0.0
 11
50.38620183405821
 21
86.65977618230384
 31
0.0
  0
ARC
  5
B6
330
393
100
AcDbEntity
  8
DATA
  6
Continuous
 62
     7
100
AcDbCircle
 10
54.15538550752785
 20
84.51079659046726
 30
0.0
 40
4.338762363909416
100
AcDbArc
 50
107.0090081320968
 51
150.3106083760842
  0
ARC
  5
B7
330
393
100
AcDbEntity
  8
DATA
  6
Continuous
 62
     7
100
AcDbCircle
 10
35.6170181605891
 20
84.51079659046726
 30
0.0
 40
4.338762363909649
100
AcDbArc
 50
29.68939162391458
 51
72.99099186790226
  0
CIRCLE
  5
B8
330
393
100
AcDbEntity
  8
DATA
  6
Continuous
 62
     7
100
AcDbCircle
 10
44.87725517824167
 20
99.5157317436714
 30
0.0
 40
1.175000000000067
  0
LWPOLYLINE
  5
B9
330
393
100
AcDbEntity
  8
DATA
  6
Continuous
 62
     7
100
AcDbPolyline
 90
        6
 70
     1
 43
0.0
 10
44.87725517824167
 20
102.2157317436711
 10
42.53898658802373
 20
100.8657317436712
 10
42.53898658802373
 20
98.16573174367157
 10
44.87725517824167
 20
96.81573174367159
 10
47.2155237684597
 20
98.16573174367157
 10
47.2155237684597
 20
100.8657317436712
  0
LWPOLYLINE
  5
C2
330
393
100
AcDbEntity
  8
DATA
  6
Continuous
 62
     7
100
AcDbPolyline
 90
        4
 70
     1
 43
0.0
 10
39.56632883823898
 20
90.06178263509106
 10
50.56632883823898
 20
90.06178263509106
 10
50.56632883823898
 20
89.06178263509106
 10
39.56632883823898
 20
89.06178263509106
  0
LINE
  5
C9
330
393
100
AcDbEntity
  8
DATA
  6
Continuous
 62
     7
100
AcDbLine
 10
133.125
 20
97.38372435204206
 30
0.0
 11
133.125
 21
102.060261532478
 31
0.0
  0
LINE
  5
CA
330
393
100
AcDbEntity
  8
DATA
  6
Continuous
 62
     7
100
AcDbLine
 10
128.125
 20
102.060261532478
 30
0.0
 11
133.125
 21
102.060261532478
 31
0.0
  0
LINE
  5
CB
330
393
100
AcDbEntity
  8
DATA
  6
Continuous
 62
     7
100
AcDbLine
 10
128.125
 20
97.38372435204206
 30
0.0
 11
133.125
 21
97.38372435204206
 31
0.0
  0
LINE
  5
CC
330
393
100
AcDbEntity
  8
DATA
  6
Continuous
 62
     7
100
AcDbLine
 10
133.125
 20
99.53291928226278
 30
0.0
 11
128.125
 21
99.53291928226272
 31
0.0
  0
ARC
  5
CD
330
393
100
AcDbEntity
  8
DATA
  6
Continuous
 62
     7
100
AcDbCircle
 10
74.4779506794887
 20
183.4862849142309
 30
0.0
 40
5.901878987298561
100
AcDbArc
 50
294.7144096425628
 51
2.318092089745674
  0
ARC
  5
CE
330
393
100
AcDbEntity
  8
DATA
  6
Continuous
 62
     7
100
AcDbCircle
 10
15.2720493205113
 20
183.4862849142309
 30
0.0
 40
5.901878987298563
100
AcDbArc
 50
177.6819079102543
 51
245.2855903574372
  0
LINE
  5
CF
330
393
100
AcDbEntity
  8
DATA
  6
Continuous
 62
     7
100
AcDbLine
 10
12.80450000000007
 20
178.125
 30
0.0
 11
76.94550000000003
 21
178.125
 31
0.0
  0
LINE
  5
D0
330
393
100
AcDbEntity
  8
DATA
  6
Continuous
 62
     7
100
AcDbLine
 10
9.375
 20
183.725
 30
0.0
 11
80.37499999999999
 21
183.725
 31
0.0
  0
LINE
  5
D1
330
393
100
AcDbEntity
  8
DATA
  6
Continuous
 62
     7
100
AcDbLine
 10
42.11231610812709
 20
173.125
 30
0.0
 11
42.11231610812709
 21
178.125
 31
0.0
  0
LINE
  5
D2
330
393
100
AcDbEntity
  8
DATA
  6
Continuous
 62
     7
100
AcDbLine
 10
47.51231610812665
 20
173.125
 30
0.0
 11
47.51231610812665
 21
178.125
 31
0.0
  0
LINE
  5
D3
330
393
100
AcDbEntity
  8
DATA
  6
Continuous
 62
     7
100
AcDbLine
 10
42.11231610812709
 20
173.125
 30
0.0
 11
47.51231610812665
 21
173.125
 31
0.0
  0
LINE
  5
D4
330
393
100
AcDbEntity
  8
DATA
  6
Continuous
 62
     7
100
AcDbLine
 10
43.46231610812703
 20
173.125
 30
0.0
 11
43.46231610812703
 21
178.125
 31
0.0
  0
LINE
  5
D5
330
393
100
AcDbEntity
  8
DATA
  6
Continuous
 62
     7
100
AcDbLine
 10
46.16231610812675
 20
173.125
 30
0.0
 11
46.16231610812675
 21
178.125
 31
0.0
  0
LINE
  5
D6
330
393
100
AcDbEntity
  8
DATA
  6
Continuous
 62
     7
100
AcDbLine
 10
43.41231610812688
 20
185.125
 30
0.0
 11
46.21231610812688
 21
185.125
 31
0.0
  0
LINE
  5
D7
330
393
100
AcDbEntity
  8
DATA
  6
Continuous
 62
     7
100
AcDbLine
 10
43.41231610812688
 20
183.725
 30
0.0
 11
43.41231610812688
 21
185.125
 31
0.0
  0
LINE
  5
D8
330
393
100
AcDbEntity
  8
DATA
  6
Continuous
 62
     7
100
AcDbLine
 10
46.21231610812688
 20
185.125
 30
0.0
 11
46.21231610812688
 21
183.725
 31
0.0
  0
LINE
  5
D9
330
393
100
AcDbEntity
  8
DATA
  6
Continuous
 62
     7
100
AcDbLine
 10
149.75
 20
143.25
 30
0.0
 11
208.75
 21
143.25
 31
0.0
  0
LINE
  5
DA
330
393
100
AcDbEntity
  8
DATA
  6
Continuous
 62
     7
100
AcDbLine
 10
208.75
 20
34.25
 30
0.0
 11
149.75
 21
34.25
 31
0.0
  0
LINE
  5
DB
330
393
100
AcDbEntity
  8
DATA
  6
Continuous
 62
     7
100
AcDbLine
 10
146.75
 20
37.25
 30
0.0
 11
146.75
 21
140.25
 31
0.0
  0
LINE
  5
DC
330
393
100
AcDbEntity
  8
DATA
  6
Continuous
 62
     7
100
AcDbLine
 10
211.75
 20
140.25
 30
0.0
 11
211.75
 21
37.25
 31
0.0
  0
ARC
  5
DD
330
393
100
AcDbEntity
  8
DATA
  6
Continuous
 62
     7
100
AcDbCircle
 10
149.75
 20
140.25
 30
0.0
 40
3.0
100
AcDbArc
 50
90.0
 51
180.0
  0
ARC
  5
DE
330
393
100
AcDbEntity
  8
DATA
  6
Continuous
 62
     7
100
AcDbCircle
 10
208.75
 20
140.25
 30
0.0
 40
3.0
100
AcDbArc
 50
0.0
 51
90.0
  0
ARC
  5
DF
330
393
100
AcDbEntity
  8
DATA
  6
Continuous
 62
     7
100
AcDbCircle
 10
149.75
 20
37.25
 30
0.0
 40
3.0
100
AcDbArc
 50
180.0
 51
270.0
  0
ARC
  5
E0
330
393
100
AcDbEntity
  8
DATA
  6
Continuous
 62
     7
100
AcDbCircle
 10
208.75
 20
37.25
 30
0.0
 40
3.0
100
AcDbArc
 50
270.0
 51
0.0
  0
LWPOLYLINE
  5
E1
330
393
100
AcDbEntity
  8
DATA
  6
Continuous
 62
     7
100
AcDbPolyline
 90
        4
 70
     0
 43
0.0
 10
52.88620183405856
 20
196.7120045234702
 10
52.88620183405856
 20
200.7120045234703
 10
36.88620183405844
 20
200.7120045234703
 10
36.88620183405844
 20
196.7120045234702
  0
LINE
  5
E8
330
393
100
AcDbEntity
  8
DATA
  6
Continuous
 62
     7
100
AcDbLine
 10
39.3862018340589
 20
194.7120045234702
 30
0.0
 11
50.38620183405821
 21
194.7120045234702
 31
0.0
  0
ARC
  5
E9
330
393
100
AcDbEntity
  8
DATA
  6
Continuous
 62
     7
100
AcDbCircle
 10
54.15538550752785
 20
192.5630249316337
 30
0.0
 40
4.338762363909416
100
AcDbArc
 50
107.0090081320968
 51
150.3106083760842
  0
ARC
  5
EA
330
393
100
AcDbEntity
  8
DATA
  6
Continuous
 62
     7
100
AcDbCircle
 10
35.6170181605891
 20
192.5630249316337
 30
0.0
 40
4.338762363909649
100
AcDbArc
 50
29.68939162391458
 51
72.99099186790226
  0
CIRCLE
  5
EB
330
393
100
AcDbEntity
  8
DATA
  6
Continuous
 62
     7
100
AcDbCircle
 10
44.87725517824167
 20
207.567960084838
 30
0.0
 40
1.175000000000067
  0
LWPOLYLINE
  5
EC
330
393
100
AcDbEntity
  8
DATA
  6
Continuous
 62
     7
100
AcDbPolyline
 90
        6
 70
     1
 43
0.0
 10
44.87725517824167
 20
210.2679600848379
 10
42.53898658802373
 20
208.917960084838
 10
42.53898658802373
 20
206.2179600848382
 10
44.87725517824167
 20
204.8679600848381
 10
47.2155237684597
 20
206.2179600848382
 10
47.2155237684597
 20
208.917960084838
  0
LWPOLYLINE
  5
F5
330
393
100
AcDbEntity
  8
DATA
  6
Continuous
 62
     7
100
AcDbPolyline
 90
        4
 70
     1
 43
0.0
 10
39.56632883823898
 20
198.1140109762575
 10
50.56632883823898
 20
198.1140109762575
 10
50.56632883823898
 20
197.1140109762575
 10
39.56632883823898
 20
197.1140109762575
  0
LINE
  5
FC
330
393
100
AcDbEntity
  8
DATA
  6
Continuous
 62
     7
100
AcDbLine
 10
41.12499999999999
 20
203.9699335140773
 30
0.0
 11
41.12499999999999
 21
208.125
 31
0.0
  0
LINE
  5
FD
330
393
100
AcDbEntity
  8
DATA
  6
Continuous
 62
     7
100
AcDbLine
 10
48.62499999999999
 20
208.125
 30
0.0
 11
48.62499999999999
 21
203.9699335140773
 31
0.0
  0
LINE
  5
FE
330
393
100
AcDbEntity
  8
DATA
  6
Continuous
 62
     7
100
AcDbLine
 10
44.12499999999999
 20
211.125
 30
0.0
 11
45.62499999999999
 21
211.125
 31
0.0
  0
ARC
  5
FF
330
393
100
AcDbEntity
  8
DATA
  6
Continuous
 62
     7
100
AcDbCircle
 10
44.12499999999999
 20
208.125
 30
0.0
 40
3.0
100
AcDbArc
 50
90.0
 51
180.0
  0
ARC
  5
100
330
393
100
AcDbEntity
  8
DATA
  6
Continuous
 62
     7
100
AcDbCircle
 10
45.62499999999999
 20
208.125
 30
0.0
 40
3.0
100
AcDbArc
 50
0.0
 51
90.0
  0
LINE
  5
101
330
393
100
AcDbEntity
  8
DATA
  6
Continuous
 62
     7
100
AcDbLine
 10
50.625
 20
201.9699335140773
 30
0.0
 11
54.87725517824168
 21
201.9699335140773
 31
0.0
  0
ARC
  5
102
330
393
100
AcDbEntity
  8
DATA
  6
Continuous
 62
     7
100
AcDbCircle
 10
39.125
 20
203.9699335140773
 30
0.0
 40
2.0
100
AcDbArc
 50
270.0
 51
0.0
  0
ARC
  5
103
330
393
100
AcDbEntity
  8
DATA
  6
Continuous
 62
     7
100
AcDbCircle
 10
50.625
 20
203.9699335140773
 30
0.0
 40
2.0
100
AcDbArc
 50
180.0
 51
270.0
  0
LINE
  5
104
330
393
100
AcDbEntity
  8
DATA
  6
Continuous
 62
     7
100
AcDbLine
 10
39.125
 20
201.9699335140773
 30
0.0
 11
34.87725517824169
 21
201.9699335140773
 31
0.0
  0
LINE
  5
105
330
393
100
AcDbEntity
  8
DATA
  6
Continuous
 62
     7
100
AcDbLine
 10
34.87725517824169
 20
193.4718200693024
 30
0.0
 11
34.87725517824169
 21
201.9699335140773
 31
0.0
  0
LINE
  5
106
330
393
100
AcDbEntity
  8
DATA
  6
Continuous
 62
     7
100
AcDbLine
 10
54.87725517824168
 20
201.9699335140773
 30
0.0
 11
54.87725517824168
 21
193.4718200693024
 31
0.0
  0
LINE
  5
107
330
393
100
AcDbEntity
  8
DATA
  6
Continuous
 62
     7
100
AcDbLine
 10
34.87725517824169
 20
193.4718200693024
 30
0.0
 11
54.87725517824168
 21
193.4718200693024
 31
0.0
  0
LINE
  5
108
330
393
100
AcDbEntity
  8
DATA
  6
Continuous
 62
     7
100
AcDbLine
 10
34.87725517824169
 20
201.9699335140773
 30
0.0
 11
32.875
 21
201.9699335140773
 31
0.0
  0
LINE
  5
109
330
393
100
AcDbEntity
  8
DATA
  6
Continuous
 62
     7
100
AcDbLine
 10
54.87725517824168
 20
201.9699335140773
 30
0.0
 11
56.875
 21
201.9699335140773
 31
0.0
  0
LINE
  5
10A
330
393
100
AcDbEntity
  8
DATA
  6
Continuous
 62
     7
100
AcDbLine
 10
32.875
 20
201.9699335140773
 30
0.0
 11
32.875
 21
185.4938271604937
 31
0.0
  0
LINE
  5
10B
330
393
100
AcDbEntity
  8
DATA
  6
Continuous
 62
     7
100
AcDbLine
 10
56.875
 20
201.9699335140773
 30
0.0
 11
56.875
 21
185.4938271604937
 31
0.0
  0
LINE
  5
10C
330
393
100
AcDbEntity
  8
DATA
  6
Continuous
 62
     7
100
AcDbLine
 10
32.875
 20
185.4938271604937
 30
0.0
 11
34.30775000000001
 21
183.725
 31
0.0
  0
LINE
  5
10D
330
393
100
AcDbEntity
  8
DATA
  6
Continuous
 62
     7
100
AcDbLine
 10
56.875
 20
185.4938271604937
 30
0.0
 11
55.44225000000009
 21
183.725
 31
0.0
  0
LINE
  5
10E
330
393
100
AcDbEntity
  8
DATA
  6
Continuous
 62
     7
100
AcDbLine
 10
122.525
 20
84.25
 30
0.0
 11
102.25
 21
84.25
 31
0.0
  0
LINE
  5
10F
330
393
100
AcDbEntity
  8
DATA
  6
Continuous
 62
     7
100
AcDbLine
 10
102.25
 20
99.65000000000001
 30
0.0
 11
102.25
 21
84.25
 31
0.0
  0
LINE
  5
110
330
393
100
AcDbEntity
  8
DATA
  6
Continuous
 62
     7
100
AcDbLine
 10
111.25
 20
101.25
 30
0.0
 11
95.12500000000001
 21
101.25
 31
0.0
  0
LINE
  5
111
330
393
100
AcDbEntity
  8
DATA
  6
Continuous
 62
     7
100
AcDbLine
 10
111.25
 20
101.25
 30
0.0
 11
111.25
 21
92.09999999999999
 31
0.0
  0
LINE
  5
112
330
393
100
AcDbEntity
  8
DATA
  6
Continuous
 62
     7
100
AcDbLine
 10
122.525
 20
92.09999999999999
 30
0.0
 11
102.25
 21
92.09999999999999
 31
0.0
  0
LINE
  5
113
330
393
100
AcDbEntity
  8
DATA
  6
Continuous
 62
     7
100
AcDbLine
 10
95.83955521577331
 20
101.25
 30
0.0
 11
95.83955521577331
 21
107.2557714391302
 31
0.0
  0
LINE
  5
114
330
393
100
AcDbEntity
  8
DATA
  6
Continuous
 62
     7
100
AcDbLine
 10
100.6395552157733
 20
107.2557714391302
 30
0.0
 11
100.6395552157733
 21
101.25
 31
0.0
  0
LINE
  5
115
330
393
100
AcDbEntity
  8
DATA
  6
Continuous
 62
     7
100
AcDbLine
 10
95.83955521577331
 20
107.2557714391302
 30
0.0
 11
100.6395552157733
 21
107.2557714391302
 31
0.0
  0
LINE
  5
116
330
393
100
AcDbEntity
  8
DATA
  6
Continuous
 62
     7
100
AcDbLine
 10
99.63955521577332
 20
95.73193770720655
 30
0.0
 11
96.83955521577331
 21
95.73193770720655
 31
0.0
  0
LINE
  5
117
330
393
100
AcDbEntity
  8
DATA
  6
Continuous
 62
     7
100
AcDbLine
 10
99.63955521577332
 20
99.65000000000001
 30
0.0
 11
99.63955521577332
 21
95.73193770720655
 31
0.0
  0
LINE
  5
118
330
393
100
AcDbEntity
  8
DATA
  6
Continuous
 62
     7
100
AcDbLine
 10
96.83955521577331
 20
95.73193770720655
 30
0.0
 11
96.83955521577331
 21
99.65000000000001
 31
0.0
  0
LINE
  5
119
330
393
100
AcDbEntity
  8
DATA
  6
Continuous
 62
     7
100
AcDbLine
 10
102.25
 20
99.65000000000001
 30
0.0
 11
95.12500000000001
 21
99.65000000000001
 31
0.0
  0
LINE
  5
11A
330
393
100
AcDbEntity
  8
DATA
  6
Continuous
 62
     7
100
AcDbLine
 10
95.12500000000001
 20
99.65000000000001
 30
0.0
 11
95.12500000000001
 21
101.25
 31
0.0
  0
LINE
  5
11B
330
393
100
AcDbEntity
  8
DATA
  6
Continuous
 62
     7
100
AcDbLine
 10
104.137095956834
 20
92.09999999999999
 30
0.0
 11
104.137095956834
 21
84.25
 31
0.0
  0
LINE
  5
11C
330
393
100
AcDbEntity
  8
DATA
  6
Continuous
 62
     7
100
AcDbLine
 10
106.137095956834
 20
92.09999999999999
 30
0.0
 11
106.137095956834
 21
84.25
 31
0.0
  0
LINE
  5
11D
330
393
100
AcDbEntity
  8
DATA
  6
Continuous
 62
     7
100
AcDbLine
 10
108.137095956834
 20
92.09999999999999
 30
0.0
 11
108.137095956834
 21
84.25
 31
0.0
  0
LINE
  5
11E
330
393
100
AcDbEntity
  8
DATA
  6
Continuous
 62
     7
100
AcDbLine
 10
110.137095956834
 20
92.09999999999999
 30
0.0
 11
110.137095956834
 21
84.25
 31
0.0
  0
LINE
  5
11F
330
393
100
AcDbEntity
  8
DATA
  6
Continuous
 62
     7
100
AcDbLine
 10
112.137095956834
 20
92.09999999999999
 30
0.0
 11
112.137095956834
 21
84.25
 31
0.0
  0
LINE
  5
120
330
393
100
AcDbEntity
  8
DATA
  6
Continuous
 62
     7
100
AcDbLine
 10
114.137095956834
 20
92.09999999999999
 30
0.0
 11
114.137095956834
 21
84.25
 31
0.0
  0
LINE
  5
121
330
393
100
AcDbEntity
  8
DATA
  6
Continuous
 62
     7
100
AcDbLine
 10
116.137095956834
 20
92.09999999999999
 30
0.0
 11
116.137095956834
 21
84.25
 31
0.0
  0
LINE
  5
122
330
393
100
AcDbEntity
  8
DATA
  6
Continuous
 62
     7
100
AcDbLine
 10
118.137095956834
 20
92.09999999999999
 30
0.0
 11
118.137095956834
 21
84.25
 31
0.0
  0
LINE
  5
123
330
393
100
AcDbEntity
  8
DATA
  6
Continuous
 62
     7
100
AcDbLine
 10
120.137095956834
 20
92.09999999999999
 30
0.0
 11
120.137095956834
 21
84.25
 31
0.0
  0
LINE
  5
124
330
393
100
AcDbEntity
  8
DATA
  6
Continuous
 62
     7
100
AcDbLine
 10
167.25
 20
84.25
 30
0.0
 11
191.25
 21
84.25
 31
0.0
  0
LINE
  5
125
330
393
100
AcDbEntity
  8
DATA
  6
Continuous
 62
     7
100
AcDbLine
 10
169.25
 20
101.25
 30
0.0
 11
189.25
 21
101.25
 31
0.0
  0
LINE
  5
126
330
393
100
AcDbEntity
  8
DATA
  6
Continuous
 62
     7
100
AcDbLine
 10
167.25
 20
92.09999999999999
 30
0.0
 11
169.25
 21
92.09999999999999
 31
0.0
  0
LINE
  5
127
330
393
100
AcDbEntity
  8
DATA
  6
Continuous
 62
     7
100
AcDbLine
 10
189.25
 20
92.09999999999999
 30
0.0
 11
191.25
 21
92.09999999999999
 31
0.0
  0
LINE
  5
128
330
393
100
AcDbEntity
  8
DATA
  6
Continuous
 62
     7
100
AcDbLine
 10
167.25
 20
84.25
 30
0.0
 11
167.25
 21
92.09999999999999
 31
0.0
  0
LINE
  5
129
330
393
100
AcDbEntity
  8
DATA
  6
Continuous
 62
     7
100
AcDbLine
 10
191.25
 20
92.09999999999999
 30
0.0
 11
191.25
 21
84.25
 31
0.0
  0
LINE
  5
12A
330
393
100
AcDbEntity
  8
DATA
  6
Continuous
 62
     7
100
AcDbLine
 10
169.25
 20
92.09999999999999
 30
0.0
 11
169.25
 21
101.25
 31
0.0
  0
LINE
  5
12B
330
393
100
AcDbEntity
  8
DATA
  6
Continuous
 62
     7
100
AcDbLine
 10
189.25
 20
101.25
 30
0.0
 11
189.25
 21
92.09999999999999
 31
0.0
  0
LINE
  5
12C
330
393
100
AcDbEntity
  8
DATA
  6
Continuous
 62
     7
100
AcDbLine
 10
169.25
 20
99.65000000000001
 30
0.0
 11
189.25
 21
99.65000000000001
 31
0.0
  0
LINE
  5
12D
330
393
100
AcDbEntity
  8
DATA
  6
Continuous
 62
     7
100
AcDbLine
 10
176.8349020499637
 20
101.25
 30
0.0
 11
176.8349020499637
 21
107.2557714391302
 31
0.0
  0
LINE
  5
12E
330
393
100
AcDbEntity
  8
DATA
  6
Continuous
 62
     7
100
AcDbLine
 10
181.6349020499636
 20
107.2557714391302
 30
0.0
 11
181.6349020499636
 21
101.25
 31
0.0
  0
LINE
  5
12F
330
393
100
AcDbEntity
  8
DATA
  6
Continuous
 62
     7
100
AcDbLine
 10
176.8349020499637
 20
107.2557714391302
 30
0.0
 11
181.6349020499636
 21
107.2557714391302
 31
0.0
  0
LINE
  5
130
330
393
100
AcDbEntity
  8
DATA
  6
Continuous
 62
     7
100
AcDbLine
 10
180.6349020499636
 20
95.73193770720655
 30
0.0
 11
177.8349020499637
 21
95.73193770720655
 31
0.0
  0
LINE
  5
131
330
393
100
AcDbEntity
  8
DATA
  6
Continuous
 62
     7
100
AcDbLine
 10
180.6349020499636
 20
99.65000000000001
 30
0.0
 11
180.6349020499636
 21
95.73193770720655
 31
0.0
  0
LINE
  5
132
330
393
100
AcDbEntity
  8
DATA
  6
Continuous
 62
     7
100
AcDbLine
 10
177.8349020499637
 20
95.73193770720655
 30
0.0
 11
177.8349020499637
 21
99.65000000000001
 31
0.0
  0
ENDSEC
  0
SECTION
  2
OBJECTS
  0
DICTIONARY
  5
329
330
0
100
AcDbDictionary
281
     1
  3
ACAD_COLOR
350
38A
  3
ACAD_GROUP
350
32A
  3
ACAD_LAYOUT
350
389
  3
ACAD_MATERIAL
350
32D
  3
ACAD_MLEADERSTYLE
350
38D
  3
ACAD_MLINESTYLE
350
386
  3
ACAD_PLOTSETTINGS
350
388
  3
ACAD_PLOTSTYLENAME
350
32B
  3
ACAD_SCALELIST
350
35A
  3
ACAD_TABLESTYLE
350
38B
  3
ACAD_VISUALSTYLE
350
346
  3
ACDB_RECOMPOSE_DATA
350
3B8
  3
AcDbVariableDictionary
350
3AE
  3
DWGPROPS
350
3B9
  0
DICTIONARY
  5
3A4
330
37C
100
AcDbDictionary
280
     1
281
     1
  3
ADSK_XREC_LAYER_RECONCILED
360
3A5
  0
DICTIONARY
  5
3A6
330
397
100
AcDbDictionary
280
     1
281
     1
  3
ADSK_XREC_LAYER_RECONCILED
360
3A7
  0
DICTIONARY
  5
3A8
330
399
100
AcDbDictionary
280
     1
281
     1
  3
ADSK_XREC_LAYER_RECONCILED
360
3A9
  0
DICTIONARY
  5
3AA
330
39A
100
AcDbDictionary
280
     1
281
     1
  3
ADSK_XREC_LAYER_RECONCILED
360
3AB
  0
DICTIONARY
  5
3AC
330
39B
100
AcDbDictionary
280
     1
281
     1
  3
ADSK_XREC_LAYER_RECONCILED
360
3AD
  0
DICTIONARY
  5
38A
102
{ACAD_REACTORS
330
329
102
}
330
329
100
AcDbDictionary
281
     1
  0
DICTIONARY
  5
32A
102
{ACAD_REACTORS
330
329
102
}
330
329
100
AcDbDictionary
281
     1
  0
DICTIONARY
  5
389
102
{ACAD_REACTORS
330
329
102
}
330
329
100
AcDbDictionary
281
     1
  3
Model
350
396
  3
レイアウト1
350
392
  0
DICTIONARY
  5
32D
102
{ACAD_REACTORS
330
329
102
}
330
329
100
AcDbDictionary
281
     1
  3
ByBlock
350
336
  3
ByLayer
350
32E
  3
Global
350
33E
  0
DICTIONARY
  5
38D
102
{ACAD_REACTORS
330
329
102
}
330
329
100
AcDbDictionary
281
     1
  3
Standard
350
38E
  0
DICTIONARY
  5
386
102
{ACAD_REACTORS
330
329
102
}
330
329
100
AcDbDictionary
281
     1
  3
Standard
350
387
  0
DICTIONARY
  5
388
102
{ACAD_REACTORS
330
329
102
}
330
329
100
AcDbDictionary
281
     1
  0
ACDBDICTIONARYWDFLT
  5
32B
102
{ACAD_REACTORS
330
329
102
}
330
329
100
AcDbDictionary
281
     1
  3
Normal
350
32C
100
AcDbDictionaryWithDefault
340
32C
  0
DICTIONARY
  5
35A
102
{ACAD_REACTORS
330
329
102
}
330
329
100
AcDbDictionary
281
     1
  3
A0
350
35B
  3
A1
350
35C
  3
A2
350
35D
  3
A3
350
35E
  3
A4
350
35F
  3
A5
350
360
  3
A6
350
361
  3
A7
350
362
  3
A8
350
363
  3
A9
350
364
  3
B0
350
365
  3
B1
350
366
  3
B2
350
367
  3
B3
350
368
  3
B4
350
369
  3
B5
350
36A
  3
B6
350
36B
  3
B7
350
36C
  3
B8
350
36D
  3
B9
350
36E
  3
C0
350
36F
  3
C1
350
370
  3
C2
350
371
  3
C3
350
372
  3
C4
350
373
  3
C5
350
374
  3
C6
350
375
  3
C7
350
376
  3
C8
350
377
  3
C9
350
378
  3
D0
350
379
  3
D1
350
37A
  3
D2
350
37B
  0
DICTIONARY
  5
38B
102
{ACAD_REACTORS
330
329
102
}
330
329
100
AcDbDictionary
281
     1
  3
Standard
350
38C
  0
DICTIONARY
  5
346
102
{ACAD_REACTORS
330
329
102
}
330
329
100
AcDbDictionary
281
     1
  3
2dWireframe
350
34C
  3
3D Hidden
350
34E
  3
3dWireframe
350
34D
  3
Basic
350
34B
  3
Brighten
350
352
  3
ColorChange
350
356
  3
Conceptual
350
34F
  3
Dim
350
351
  3
EdgeColorOff
350
359
  3
Facepattern
350
355
  3
Flat
350
347
  3
FlatWithEdges
350
348
  3
Gouraud
350
349
  3
GouraudWithEdges
350
34A
  3
JitterOff
350
357
  3
Linepattern
350
354
  3
OverhangOff
350
358
  3
Realistic
350
350
  3
Thicken
350
353
  0
XRECORD
  5
3B8
102
{ACAD_REACTORS
330
329
102
}
330
329
100
AcDbXrecord
280
     1
 90
        1
330
38C
  0
DICTIONARY
  5
3AE
102
{ACAD_REACTORS
330
329
102
}
330
329
100
AcDbDictionary
281
     1
  3
CANNOSCALE
350
3B1
  3
CMLEADERSTYLE
350
3B0
  3
CTABLESTYLE
350
3AF
  3
DIMASSOC
350
3B4
  3
INDEXCTL
350
3B3
  3
SORTENTS
350
3B2
  3
XCLIPFRAME
350
3B5
  0
XRECORD
  5
3B9
102
{ACAD_REACTORS
330
329
102
}
330
329
100
AcDbXrecord
280
     1
  1
DWGPROPS COOKIE
  2

  3

  4

  6

  7

  8
sasaki_n
  9

300
=
301
=
302
=
303
=
304
=
305
=
306
=
307
=
308
=
309
=
 40
0.0015721643518519
 41
2455281.429502315
 42
2455281.433486921
  1

 90
        0
  0
XRECORD
  5
3A5
102
{ACAD_REACTORS
330
3A4
102
}
330
3A4
100
AcDbXrecord
280
     1
290
     1
  0
XRECORD
  5
3A7
102
{ACAD_REACTORS
330
3A6
102
}
330
3A6
100
AcDbXrecord
280
     1
290
     1
  0
XRECORD
  5
3A9
102
{ACAD_REACTORS
330
3A8
102
}
330
3A8
100
AcDbXrecord
280
     1
290
     1
  0
XRECORD
  5
3AB
102
{ACAD_REACTORS
330
3AA
102
}
330
3AA
100
AcDbXrecord
280
     1
290
     1
  0
XRECORD
  5
3AD
102
{ACAD_REACTORS
330
3AC
102
}
330
3AC
100
AcDbXrecord
280
     1
290
     1
  0
LAYOUT
  5
396
102
{ACAD_XDICTIONARY
360
3E6
102
}
102
{ACAD_REACTORS
330
389
102
}
330
389
100
AcDbPlotSettings
  1

  2
DocuPrint 255-1
  4

  6

 40
0.0
 41
0.0
 42
0.0
 43
0.0
 44
0.0
 45
0.0
 46
0.0
 47
0.0
 48
0.0
 49
0.0
140
0.0
141
0.0
142
1.0
143
1.0
 70
  1712
 72
     0
 73
     0
 74
     0
  7

 75
     0
147
1.0
148
0.0
149
0.0
100
AcDbLayout
  1
Model
 70
     1
 71
     0
 10
0.0
 20
0.0
 11
12.0
 21
9.0
 12
0.0
 22
0.0
 32
0.0
 14
0.0
 24
0.0
 34
0.0
 15
0.0
 25
0.0
 35
0.0
146
0.0
 13
0.0
 23
0.0
 33
0.0
 16
1.0
 26
0.0
 36
0.0
 17
0.0
 27
1.0
 37
0.0
 76
     0
330
393
331
398
  0
LAYOUT
  5
392
102
{ACAD_XDICTIONARY
360
3E4
102
}
102
{ACAD_REACTORS
330
389
102
}
330
389
100
AcDbPlotSettings
  1

  2
DocuPrint 255-1
  4

  6

 40
0.0
 41
0.0
 42
0.0
 43
0.0
 44
0.0
 45
0.0
 46
0.0
 47
0.0
 48
0.0
 49
0.0
140
0.0
141
0.0
142
1.0
143
1.0
 70
   688
 72
     0
 73
     0
 74
     5
  7

 75
    16
147
1.0
148
0.0
149
0.0
100
AcDbLayout
  1
レイアウト1
 70
     0
 71
     1
 10
0.0
 20
0.0
 11
12.0
 21
9.0
 12
0.0
 22
0.0
 32
0.0
 14
1.000000000000000E+20
 24
1.000000000000000E+20
 34
1.000000000000000E+20
 15
-1.000000000000000E+20
 25
-1.000000000000000E+20
 35
-1.000000000000000E+20
146
0.0
 13
0.0
 23
0.0
 33
0.0
 16
1.0
 26
0.0
 36
0.0
 17
0.0
 27
1.0
 37
0.0
 76
     0
330
38F
  0
MATERIAL
  5
336
102
{ACAD_XDICTIONARY
360
337
102
}
102
{ACAD_REACTORS
330
32D
102
}
330
32D
100
AcDbMaterial
  1
ByBlock
 72
     0
 43
0.0208333333333333
 43
0.0
 43
0.0
 43
0.0
 43
0.0
 43
0.0208333333333333
 43
0.0
 43
0.0
 43
0.0
 43
0.0
 43
1.0
 43
0.0
 43
0.0
 43
0.0
 43
0.0
 43
1.0
 77
     0
 47
0.0208333333333333
 47
0.0
 47
0.0
 47
0.0
 47
0.0
 47
0.0208333333333333
 47
0.0
 47
0.0
 47
0.0
 47
0.0
 47
1.0
 47
0.0
 47
0.0
 47
0.0
 47
0.0
 47
1.0
171
     0
 49
0.0208333333333333
 49
0.0
 49
0.0
 49
0.0
 49
0.0
 49
0.0208333333333333
 49
0.0
 49
0.0
 49
0.0
 49
0.0
 49
1.0
 49
0.0
 49
0.0
 49
0.0
 49
0.0
 49
1.0
175
     0
142
0.0208333333333333
142
0.0
142
0.0
142
0.0
142
0.0
142
0.0208333333333333
142
0.0
142
0.0
142
0.0
142
0.0
142
1.0
142
0.0
142
0.0
142
0.0
142
0.0
142
1.0
179
     0
144
0.0208333333333333
144
0.0
144
0.0
144
0.0
144
0.0
144
0.0208333333333333
144
0.0
144
0.0
144
0.0
144
0.0
144
1.0
144
0.0
144
0.0
144
0.0
144
0.0
144
1.0
147
0.0208333333333333
147
0.0
147
0.0
147
0.0
147
0.0
147
0.0208333333333333
147
0.0
147
0.0
147
0.0
147
0.0
147
1.0
147
0.0
147
0.0
147
0.0
147
0.0
147
1.0
  0
MATERIAL
  5
32E
102
{ACAD_XDICTIONARY
360
32F
102
}
102
{ACAD_REACTORS
330
32D
102
}
330
32D
100
AcDbMaterial
  1
ByLayer
 72
     0
 43
0.0208333333333333
 43
0.0
 43
0.0
 43
0.0
 43
0.0
 43
0.0208333333333333
 43
0.0
 43
0.0
 43
0.0
 43
0.0
 43
1.0
 43
0.0
 43
0.0
 43
0.0
 43
0.0
 43
1.0
 77
     0
 47
0.0208333333333333
 47
0.0
 47
0.0
 47
0.0
 47
0.0
 47
0.0208333333333333
 47
0.0
 47
0.0
 47
0.0
 47
0.0
 47
1.0
 47
0.0
 47
0.0
 47
0.0
 47
0.0
 47
1.0
171
     0
 49
0.0208333333333333
 49
0.0
 49
0.0
 49
0.0
 49
0.0
 49
0.0208333333333333
 49
0.0
 49
0.0
 49
0.0
 49
0.0
 49
1.0
 49
0.0
 49
0.0
 49
0.0
 49
0.0
 49
1.0
175
     0
142
0.0208333333333333
142
0.0
142
0.0
142
0.0
142
0.0
142
0.0208333333333333
142
0.0
142
0.0
142
0.0
142
0.0
142
1.0
142
0.0
142
0.0
142
0.0
142
0.0
142
1.0
179
     0
144
0.0208333333333333
144
0.0
144
0.0
144
0.0
144
0.0
144
0.0208333333333333
144
0.0
144
0.0
144
0.0
144
0.0
144
1.0
144
0.0
144
0.0
144
0.0
144
0.0
144
1.0
147
0.0208333333333333
147
0.0
147
0.0
147
0.0
147
0.0
147
0.0208333333333333
147
0.0
147
0.0
147
0.0
147
0.0
147
1.0
147
0.0
147
0.0
147
0.0
147
0.0
147
1.0
  0
MATERIAL
  5
33E
102
{ACAD_XDICTIONARY
360
33F
102
}
102
{ACAD_REACTORS
330
32D
102
}
330
32D
100
AcDbMaterial
  1
Global
 72
     0
 43
0.0208333333333333
 43
0.0
 43
0.0
 43
0.0
 43
0.0
 43
0.0208333333333333
 43
0.0
 43
0.0
 43
0.0
 43
0.0
 43
1.0
 43
0.0
 43
0.0
 43
0.0
 43
0.0
 43
1.0
 77
     0
 47
0.0208333333333333
 47
0.0
 47
0.0
 47
0.0
 47
0.0
 47
0.0208333333333333
 47
0.0
 47
0.0
 47
0.0
 47
0.0
 47
1.0
 47
0.0
 47
0.0
 47
0.0
 47
0.0
 47
1.0
171
     0
 49
0.0208333333333333
 49
0.0
 49
0.0
 49
0.0
 49
0.0
 49
0.0208333333333333
 49
0.0
 49
0.0
 49
0.0
 49
0.0
 49
1.0
 49
0.0
 49
0.0
 49
0.0
 49
0.0
 49
1.0
175
     0
142
0.0208333333333333
142
0.0
142
0.0
142
0.0
142
0.0
142
0.0208333333333333
142
0.0
142
0.0
142
0.0
142
0.0
142
1.0
142
0.0
142
0.0
142
0.0
142
0.0
142
1.0
179
     0
144
0.0208333333333333
144
0.0
144
0.0
144
0.0
144
0.0
144
0.0208333333333333
144
0.0
144
0.0
144
0.0
144
0.0
144
1.0
144
0.0
144
0.0
144
0.0
144
0.0
144
1.0
147
0.0208333333333333
147
0.0
147
0.0
147
0.0
147
0.0
147
0.0208333333333333
147
0.0
147
0.0
147
0.0
147
0.0
147
1.0
147
0.0
147
0.0
147
0.0
147
0.0
147
1.0
  0
MLEADERSTYLE
  5
38E
102
{ACAD_REACTORS
330
38D
102
}
330
38D
100
AcDbMLeaderStyle
170
     2
171
     1
172
     0
 90
        2
 40
0.0
 41
0.0
173
     1
 91
-1056964608
340
382
 92
       -2
290
     1
 42
0.09
291
     1
 43
0.36
  3
Standard
 44
0.18
300

342
37D
174
     1
178
     6
175
     1
176
     0
 93
-1056964608
 45
0.18
292
     0
297
     0
 46
0.18
 94
-1056964608
 47
1.0
 49
1.0
140
1.0
293
     1
141
0.0
294
     1
177
     0
142
1.0
295
     0
296
     0
143
0.125
1001
ACAD_MLEADERVER
1070
     2
  0
MLINESTYLE
  5
387
102
{ACAD_REACTORS
330
386
102
}
330
386
100
AcDbMlineStyle
  2
STANDARD
 70
     0
  3

 62
   256
 51
90.0
 52
90.0
 71
     2
 49
0.5
 62
   256
  6
BYLAYER
 49
-0.5
 62
   256
  6
BYLAYER
  0
ACDBPLACEHOLDER
  5
32C
102
{ACAD_REACTORS
330
32B
102
}
330
32B
  0
SCALE
  5
35B
102
{ACAD_REACTORS
330
35A
102
}
330
35A
100
AcDbScale
 70
     0
300
1:1
140
1.0
141
1.0
290
     1
  0
SCALE
  5
35C
102
{ACAD_REACTORS
330
35A
102
}
330
35A
100
AcDbScale
 70
     0
300
1:2
140
1.0
141
2.0
290
     0
  0
SCALE
  5
35D
102
{ACAD_REACTORS
330
35A
102
}
330
35A
100
AcDbScale
 70
     0
300
1:4
140
1.0
141
4.0
290
     0
  0
SCALE
  5
35E
102
{ACAD_REACTORS
330
35A
102
}
330
35A
100
AcDbScale
 70
     0
300
1:5
140
1.0
141
5.0
290
     0
  0
SCALE
  5
35F
102
{ACAD_REACTORS
330
35A
102
}
330
35A
100
AcDbScale
 70
     0
300
1:8
140
1.0
141
8.0
290
     0
  0
SCALE
  5
360
102
{ACAD_REACTORS
330
35A
102
}
330
35A
100
AcDbScale
 70
     0
300
1:10
140
1.0
141
10.0
290
     0
  0
SCALE
  5
361
102
{ACAD_REACTORS
330
35A
102
}
330
35A
100
AcDbScale
 70
     0
300
1:16
140
1.0
141
16.0
290
     0
  0
SCALE
  5
362
102
{ACAD_REACTORS
330
35A
102
}
330
35A
100
AcDbScale
 70
     0
300
1:20
140
1.0
141
20.0
290
     0
  0
SCALE
  5
363
102
{ACAD_REACTORS
330
35A
102
}
330
35A
100
AcDbScale
 70
     0
300
1:30
140
1.0
141
30.0
290
     0
  0
SCALE
  5
364
102
{ACAD_REACTORS
330
35A
102
}
330
35A
100
AcDbScale
 70
     0
300
1:40
140
1.0
141
40.0
290
     0
  0
SCALE
  5
365
102
{ACAD_REACTORS
330
35A
102
}
330
35A
100
AcDbScale
 70
     0
300
1:50
140
1.0
141
50.0
290
     0
  0
SCALE
  5
366
102
{ACAD_REACTORS
330
35A
102
}
330
35A
100
AcDbScale
 70
     0
300
1:100
140
1.0
141
100.0
290
     0
  0
SCALE
  5
367
102
{ACAD_REACTORS
330
35A
102
}
330
35A
100
AcDbScale
 70
     0
300
2:1
140
2.0
141
1.0
290
     0
  0
SCALE
  5
368
102
{ACAD_REACTORS
330
35A
102
}
330
35A
100
AcDbScale
 70
     0
300
4:1
140
4.0
141
1.0
290
     0
  0
SCALE
  5
369
102
{ACAD_REACTORS
330
35A
102
}
330
35A
100
AcDbScale
 70
     0
300
8:1
140
8.0
141
1.0
290
     0
  0
SCALE
  5
36A
102
{ACAD_REACTORS
330
35A
102
}
330
35A
100
AcDbScale
 70
     0
300
10:1
140
10.0
141
1.0
290
     0
  0
SCALE
  5
36B
102
{ACAD_REACTORS
330
35A
102
}
330
35A
100
AcDbScale
 70
     0
300
100:1
140
100.0
141
1.0
290
     0
  0
SCALE
  5
36C
102
{ACAD_REACTORS
330
35A
102
}
330
35A
100
AcDbScale
 70
     0
300
1/128" = 1'-0"
140
0.0078125
141
12.0
290
     0
  0
SCALE
  5
36D
102
{ACAD_REACTORS
330
35A
102
}
330
35A
100
AcDbScale
 70
     0
300
1/64" = 1'-0"
140
0.015625
141
12.0
290
     0
  0
SCALE
  5
36E
102
{ACAD_REACTORS
330
35A
102
}
330
35A
100
AcDbScale
 70
     0
300
1/32" = 1'-0"
140
0.03125
141
12.0
290
     0
  0
SCALE
  5
36F
102
{ACAD_REACTORS
330
35A
102
}
330
35A
100
AcDbScale
 70
     0
300
1/16" = 1'-0"
140
0.0625
141
12.0
290
     0
  0
SCALE
  5
370
102
{ACAD_REACTORS
330
35A
102
}
330
35A
100
AcDbScale
 70
     0
300
3/32" = 1'-0"
140
0.09375
141
12.0
290
     0
  0
SCALE
  5
371
102
{ACAD_REACTORS
330
35A
102
}
330
35A
100
AcDbScale
 70
     0
300
1/8" = 1'-0"
140
0.125
141
12.0
290
     0
  0
SCALE
  5
372
102
{ACAD_REACTORS
330
35A
102
}
330
35A
100
AcDbScale
 70
     0
300
3/16" = 1'-0"
140
0.1875
141
12.0
290
     0
  0
SCALE
  5
373
102
{ACAD_REACTORS
330
35A
102
}
330
35A
100
AcDbScale
 70
     0
300
1/4" = 1'-0"
140
0.25
141
12.0
290
     0
  0
SCALE
  5
374
102
{ACAD_REACTORS
330
35A
102
}
330
35A
100
AcDbScale
 70
     0
300
3/8" = 1'-0"
140
0.375
141
12.0
290
     0
  0
SCALE
  5
375
102
{ACAD_REACTORS
330
35A
102
}
330
35A
100
AcDbScale
 70
     0
300
1/2" = 1'-0"
140
0.5
141
12.0
290
     0
  0
SCALE
  5
376
102
{ACAD_REACTORS
330
35A
102
}
330
35A
100
AcDbScale
 70
     0
300
3/4" = 1'-0"
140
0.75
141
12.0
290
     0
  0
SCALE
  5
377
102
{ACAD_REACTORS
330
35A
102
}
330
35A
100
AcDbScale
 70
     0
300
1" = 1'-0"
140
1.0
141
12.0
290
     0
  0
SCALE
  5
378
102
{ACAD_REACTORS
330
35A
102
}
330
35A
100
AcDbScale
 70
     0
300
1-1/2" = 1'-0"
140
1.5
141
12.0
290
     0
  0
SCALE
  5
379
102
{ACAD_REACTORS
330
35A
102
}
330
35A
100
AcDbScale
 70
     0
300
3" = 1'-0"
140
3.0
141
12.0
290
     0
  0
SCALE
  5
37A
102
{ACAD_REACTORS
330
35A
102
}
330
35A
100
AcDbScale
 70
     0
300
6" = 1'-0"
140
6.0
141
12.0
290
     0
  0
SCALE
  5
37B
102
{ACAD_REACTORS
330
35A
102
}
330
35A
100
AcDbScale
 70
     0
300
1'-0" = 1'-0"
140
12.0
141
12.0
290
     0
  0
TABLESTYLE
  5
38C
102
{ACAD_XDICTIONARY
360
3B6
102
}
102
{ACAD_REACTORS
330
38B
102
}
330
38B
100
AcDbTableStyle
  3
Standard
 70
     0
 71
     0
 40
0.06
 41
0.06
280
     0
281
     0
  7
STANDARD
140
0.18
170
     2
 62
     0
 63
     7
283
     0
274
    -2
284
     1
 64
     0
275
    -2
285
     1
 65
     0
276
    -2
286
     1
 66
     0
277
    -2
287
     1
 67
     0
278
    -2
288
     1
 68
     0
279
    -2
289
     1
 69
     0
  7
STANDARD
140
0.25
170
     5
 62
     0
 63
     7
283
     0
274
    -2
284
     1
 64
     0
275
    -2
285
     1
 65
     0
276
    -2
286
     1
 66
     0
277
    -2
287
     1
 67
     0
278
    -2
288
     1
 68
     0
279
    -2
289
     1
 69
     0
  7
STANDARD
140
0.18
170
     5
 62
     0
 63
     7
283
     0
274
    -2
284
     1
 64
     0
275
    -2
285
     1
 65
     0
276
    -2
286
     1
 66
     0
277
    -2
287
     1
 67
     0
278
    -2
288
     1
 68
     0
279
    -2
289
     1
 69
     0
  0
VISUALSTYLE
  5
34C
102
{ACAD_XDICTIONARY
360
3C7
102
}
102
{ACAD_REACTORS
330
346
102
}
330
346
100
AcDbVisualStyle
  2
2dWireframe
 70
     4
 71
     0
 72
     2
 73
     0
 90
        0
 40
-0.6
 41
-30.0
 62
     5
 63
     7
 74
     1
 91
        4
 64
     7
 65
   257
 75
     1
175
     1
 42
1.0
 92
        0
 66
   257
 43
1.0
 76
     1
 77
     6
 78
     2
 67
     7
 79
     5
170
     0
171
     0
290
     0
174
     0
 93
        1
 44
0.0
173
     0
291
     0
 45
0.0
1001
ACAD
1000
AcDbSavedByObjectVersion
1070
     0
  0
VISUALSTYLE
  5
34E
102
{ACAD_XDICTIONARY
360
3CB
102
}
102
{ACAD_REACTORS
330
346
102
}
330
346
100
AcDbVisualStyle
  2
3D Hidden
 70
     6
 71
     1
 72
     2
 73
     2
 90
        0
 40
-0.6
 41
-30.0
 62
     5
 63
     7
 74
     2
 91
        2
 64
     7
 65
   257
 75
     2
175
     1
 42
179.0
 92
        0
 66
   257
 43
1.0
 76
     1
 77
     6
 78
     2
 67
     7
 79
     3
170
     0
171
     0
290
     0
174
     0
 93
        1
 44
0.0
173
     0
291
     0
 45
0.0
1001
ACAD
1000
AcDbSavedByObjectVersion
1070
     0
  0
VISUALSTYLE
  5
34D
102
{ACAD_XDICTIONARY
360
3C9
102
}
102
{ACAD_REACTORS
330
346
102
}
330
346
100
AcDbVisualStyle
  2
3dWireframe
 70
     5
 71
     0
 72
     2
 73
     0
 90
        0
 40
-0.6
 41
-30.0
 62
     5
 63
     7
 74
     1
 91
        4
 64
     7
 65
   257
 75
     1
175
     1
 42
1.0
 92
        0
 66
   257
 43
1.0
 76
     1
 77
     6
 78
     2
 67
     7
 79
     5
170
     0
171
     0
290
     0
174
     0
 93
        1
 44
0.0
173
     0
291
     0
 45
0.0
1001
ACAD
1000
AcDbSavedByObjectVersion
1070
     0
  0
VISUALSTYLE
  5
34B
102
{ACAD_XDICTIONARY
360
3C5
102
}
102
{ACAD_REACTORS
330
346
102
}
330
346
100
AcDbVisualStyle
  2
Basic
 70
     7
 71
     1
 72
     0
 73
     1
 90
        0
 40
-0.6
 41
-30.0
 62
     5
 63
     7
 74
     0
 91
        4
 64
     7
 65
   257
 75
     1
175
     1
 42
1.0
 92
        8
 66
     7
 43
1.0
 76
     1
 77
     6
 78
     2
 67
     7
 79
     5
170
     0
171
     0
290
     0
174
     0
 93
        1
 44
0.0
173
     0
291
     1
 45
0.0
1001
ACAD
1000
AcDbSavedByObjectVersion
1070
     0
  0
VISUALSTYLE
  5
352
102
{ACAD_XDICTIONARY
360
3D3
102
}
102
{ACAD_REACTORS
330
346
102
}
330
346
100
AcDbVisualStyle
  2
Brighten
 70
    12
 71
     2
 72
     2
 73
     0
 90
        0
 40
-0.6
 41
-30.0
 62
     5
 63
     7
 74
     1
 91
        4
 64
     7
 65
   257
 75
     1
175
     1
 42
1.0
 92
        8
 66
     7
 43
1.0
 76
     1
 77
     6
 78
     2
 67
     7
 79
     5
170
     0
171
     0
290
     0
174
     0
 93
        1
 44
50.0
173
     0
291
     1
 45
0.0
1001
ACAD
1000
AcDbSavedByObjectVersion
1070
     0
  0
VISUALSTYLE
  5
356
102
{ACAD_XDICTIONARY
360
3DB
102
}
102
{ACAD_REACTORS
330
346
102
}
330
346
100
AcDbVisualStyle
  2
ColorChange
 70
    16
 71
     2
 72
     2
 73
     3
 90
        0
 40
-0.6
 41
-30.0
 62
     5
 63
     8
 74
     1
 91
        4
 64
     7
 65
   257
 75
     1
175
     1
 42
1.0
 92
        8
 66
     8
 43
1.0
 76
     1
 77
     6
 78
     2
 67
     7
 79
     5
170
     0
171
     0
290
     0
174
     0
 93
        1
 44
0.0
173
     0
291
     1
 45
0.0
1001
ACAD
1000
AcDbSavedByObjectVersion
1070
     0
  0
VISUALSTYLE
  5
34F
102
{ACAD_XDICTIONARY
360
3CD
102
}
102
{ACAD_REACTORS
330
346
102
}
330
346
100
AcDbVisualStyle
  2
Conceptual
 70
     9
 71
     3
 72
     2
 73
     0
 90
        0
 40
-0.6
 41
-30.0
 62
     5
 63
     7
 74
     2
 91
        2
 64
     7
 65
   257
 75
     1
175
     1
 42
179.0
 92
        8
 66
     7
 43
1.0
 76
     1
 77
     6
 78
     2
 67
     7
 79
     3
170
     0
171
     0
290
     0
174
     0
 93
        1
 44
0.0
173
     0
291
     0
 45
0.0
1001
ACAD
1000
AcDbSavedByObjectVersion
1070
     0
  0
VISUALSTYLE
  5
351
102
{ACAD_XDICTIONARY
360
3D1
102
}
102
{ACAD_REACTORS
330
346
102
}
330
346
100
AcDbVisualStyle
  2
Dim
 70
    11
 71
     2
 72
     2
 73
     0
 90
        0
 40
-0.6
 41
-30.0
 62
     5
 63
     7
 74
     1
 91
        4
 64
     7
 65
   257
 75
     1
175
     1
 42
1.0
 92
        8
 66
     7
 43
1.0
 76
     1
 77
     6
 78
     2
 67
     7
 79
     5
170
     0
171
     0
290
     0
174
     0
 93
        1
 44
-50.0
173
     0
291
     1
 45
0.0
1001
ACAD
1000
AcDbSavedByObjectVersion
1070
     0
  0
VISUALSTYLE
  5
359
102
{ACAD_XDICTIONARY
360
3E1
102
}
102
{ACAD_REACTORS
330
346
102
}
330
346
100
AcDbVisualStyle
  2
EdgeColorOff
 70
    22
 71
     2
 72
     2
 73
     0
 90
        0
 40
-0.6
 41
-30.0
 62
     5
 63
     7
 74
     1
 91
        4
 64
     7
 65
   257
 75
     1
175
     1
 42
1.0
 92
        8
 66
     7
 43
1.0
 76
     1
 77
     6
 78
     2
 67
     7
 79
     5
170
     0
171
     0
290
     0
174
     0
 93
        1
 44
0.0
173
     0
291
     1
 45
0.0
1001
ACAD
1000
AcDbSavedByObjectVersion
1070
     0
  0
VISUALSTYLE
  5
355
102
{ACAD_XDICTIONARY
360
3D9
102
}
102
{ACAD_REACTORS
330
346
102
}
330
346
100
AcDbVisualStyle
  2
Facepattern
 70
    15
 71
     2
 72
     2
 73
     0
 90
        0
 40
-0.6
 41
-30.0
 62
     5
 63
     7
 74
     1
 91
        4
 64
     7
 65
   257
 75
     1
175
     1
 42
1.0
 92
        8
 66
     7
 43
1.0
 76
     1
 77
     6
 78
     2
 67
     7
 79
     5
170
     0
171
     0
290
     0
174
     0
 93
        1
 44
0.0
173
     0
291
     1
 45
0.0
1001
ACAD
1000
AcDbSavedByObjectVersion
1070
     0
  0
VISUALSTYLE
  5
347
102
{ACAD_XDICTIONARY
360
3BD
102
}
102
{ACAD_REACTORS
330
346
102
}
330
346
100
AcDbVisualStyle
  2
Flat
 70
     0
 71
     2
 72
     1
 73
     1
 90
        2
 40
-0.6
 41
30.0
 62
     5
 63
     7
 74
     0
 91
        4
 64
     7
 65
   257
 75
     1
175
     1
 42
1.0
 92
        8
 66
     7
 43
1.0
 76
     1
 77
     6
 78
     2
 67
     7
 79
     5
170
     0
171
     0
290
     0
174
     0
 93
       13
 44
0.0
173
     0
291
     1
 45
0.0
1001
ACAD
1000
AcDbSavedByObjectVersion
1070
     0
  0
VISUALSTYLE
  5
348
102
{ACAD_XDICTIONARY
360
3BF
102
}
102
{ACAD_REACTORS
330
346
102
}
330
346
100
AcDbVisualStyle
  2
FlatWithEdges
 70
     1
 71
     2
 72
     1
 73
     1
 90
        2
 40
-0.6
 41
30.0
 62
     5
 63
     7
 74
     1
 91
        4
 64
     7
 65
   257
 75
     1
175
     1
 42
1.0
 92
        0
 66
   257
 43
1.0
 76
     1
 77
     6
 78
     2
 67
     7
 79
     5
170
     0
171
     0
290
     0
174
     0
 93
       13
 44
0.0
173
     0
291
     1
 45
0.0
1001
ACAD
1000
AcDbSavedByObjectVersion
1070
     0
  0
VISUALSTYLE
  5
349
102
{ACAD_XDICTIONARY
360
3C1
102
}
102
{ACAD_REACTORS
330
346
102
}
330
346
100
AcDbVisualStyle
  2
Gouraud
 70
     2
 71
     2
 72
     2
 73
     1
 90
        2
 40
-0.6
 41
30.0
 62
     5
 63
     7
 74
     0
 91
        4
 64
     7
 65
   257
 75
     1
175
     1
 42
1.0
 92
        0
 66
     7
 43
1.0
 76
     1
 77
     6
 78
     2
 67
     7
 79
     5
170
     0
171
     0
290
     0
174
     0
 93
       13
 44
0.0
173
     0
291
     1
 45
0.0
1001
ACAD
1000
AcDbSavedByObjectVersion
1070
     0
  0
VISUALSTYLE
  5
34A
102
{ACAD_XDICTIONARY
360
3C3
102
}
102
{ACAD_REACTORS
330
346
102
}
330
346
100
AcDbVisualStyle
  2
GouraudWithEdges
 70
     3
 71
     2
 72
     2
 73
     1
 90
        2
 40
-0.6
 41
30.0
 62
     5
 63
     7
 74
     1
 91
        4
 64
     7
 65
   257
 75
     1
175
     1
 42
1.0
 92
        0
 66
   257
 43
1.0
 76
     1
 77
     6
 78
     2
 67
     7
 79
     5
170
     0
171
     0
290
     0
174
     0
 93
       13
 44
0.0
173
     0
291
     1
 45
0.0
1001
ACAD
1000
AcDbSavedByObjectVersion
1070
     0
  0
VISUALSTYLE
  5
357
102
{ACAD_XDICTIONARY
360
3DD
102
}
102
{ACAD_REACTORS
330
346
102
}
330
346
100
AcDbVisualStyle
  2
JitterOff
 70
    20
 71
     2
 72
     2
 73
     0
 90
        0
 40
-0.6
 41
-30.0
 62
     5
 63
     7
 74
     1
 91
        4
 64
     7
 65
   257
 75
     1
175
     1
 42
1.0
 92
       10
 66
     7
 43
1.0
 76
     1
 77
     6
 78
     2
 67
     7
 79
     5
170
     0
171
     0
290
     0
174
     0
 93
        1
 44
0.0
173
     0
291
     1
 45
0.0
1001
ACAD
1000
AcDbSavedByObjectVersion
1070
     0
  0
VISUALSTYLE
  5
354
102
{ACAD_XDICTIONARY
360
3D7
102
}
102
{ACAD_REACTORS
330
346
102
}
330
346
100
AcDbVisualStyle
  2
Linepattern
 70
    14
 71
     2
 72
     2
 73
     0
 90
        0
 40
-0.6
 41
-30.0
 62
     5
 63
     7
 74
     1
 91
        4
 64
     7
 65
   257
 75
     7
175
     7
 42
1.0
 92
        8
 66
     7
 43
1.0
 76
     1
 77
     6
 78
     2
 67
     7
 79
     5
170
     0
171
     0
290
     0
174
     0
 93
        1
 44
0.0
173
     0
291
     1
 45
0.0
1001
ACAD
1000
AcDbSavedByObjectVersion
1070
     0
  0
VISUALSTYLE
  5
358
102
{ACAD_XDICTIONARY
360
3DF
102
}
102
{ACAD_REACTORS
330
346
102
}
330
346
100
AcDbVisualStyle
  2
OverhangOff
 70
    21
 71
     2
 72
     2
 73
     0
 90
        0
 40
-0.6
 41
-30.0
 62
     5
 63
     7
 74
     1
 91
        4
 64
     7
 65
   257
 75
     1
175
     1
 42
1.0
 92
        9
 66
     7
 43
1.0
 76
     1
 77
     6
 78
     2
 67
     7
 79
     5
170
     0
171
     0
290
     0
174
     0
 93
        1
 44
0.0
173
     0
291
     1
 45
0.0
1001
ACAD
1000
AcDbSavedByObjectVersion
1070
     0
  0
VISUALSTYLE
  5
350
102
{ACAD_XDICTIONARY
360
3CF
102
}
102
{ACAD_REACTORS
330
346
102
}
330
346
100
AcDbVisualStyle
  2
Realistic
 70
     8
 71
     2
 72
     2
 73
     0
 90
        0
 40
-0.6
 41
-30.0
 62
     5
 63
     7
 74
     1
 91
        0
 64
     7
 65
   257
 75
     1
175
     1
 42
1.0
 92
        8
 66
     8
 43
1.0
 76
     1
 77
     6
 78
     2
 67
     7
 79
     5
170
     0
171
     0
290
     0
174
     0
 93
       13
 44
0.0
173
     0
291
     0
 45
0.0
1001
ACAD
1000
AcDbSavedByObjectVersion
1070
     0
  0
VISUALSTYLE
  5
353
102
{ACAD_XDICTIONARY
360
3D5
102
}
102
{ACAD_REACTORS
330
346
102
}
330
346
100
AcDbVisualStyle
  2
Thicken
 70
    13
 71
     2
 72
     2
 73
     0
 90
        0
 40
-0.6
 41
-30.0
 62
     5
 63
     7
 74
     1
 91
        4
 64
     7
 65
   257
 75
     1
175
     1
 42
1.0
 92
       12
 66
     7
 43
1.0
 76
     1
 77
     6
 78
     2
 67
     7
 79
     5
170
     0
171
     0
290
     0
174
     0
 93
        1
 44
0.0
173
     0
291
     1
 45
0.0
1001
ACAD
1000
AcDbSavedByObjectVersion
1070
     0
  0
DICTIONARYVAR
  5
3B1
102
{ACAD_REACTORS
330
3AE
102
}
330
3AE
100
DictionaryVariables
280
     0
  1
1:1
  0
DICTIONARYVAR
  5
3B0
102
{ACAD_REACTORS
330
3AE
102
}
330
3AE
100
DictionaryVariables
280
     0
  1
STANDARD
  0
DICTIONARYVAR
  5
3AF
102
{ACAD_REACTORS
330
3AE
102
}
330
3AE
100
DictionaryVariables
280
     0
  1
STANDARD
  0
DICTIONARYVAR
  5
3B4
102
{ACAD_REACTORS
330
3AE
102
}
330
3AE
100
DictionaryVariables
280
     0
  1
1
  0
DICTIONARYVAR
  5
3B3
102
{ACAD_REACTORS
330
3AE
102
}
330
3AE
100
DictionaryVariables
280
     0
  1
0
  0
DICTIONARYVAR
  5
3B2
102
{ACAD_REACTORS
330
3AE
102
}
330
3AE
100
DictionaryVariables
280
     0
  1
127
  0
DICTIONARYVAR
  5
3B5
102
{ACAD_REACTORS
330
3AE
102
}
330
3AE
100
DictionaryVariables
280
     0
  1
2
  0
DICTIONARY
  5
3E6
330
396
100
AcDbDictionary
280
     1
281
     1
  3
ACAD_XREC_ROUNDTRIP
360
3E7
  0
DICTIONARY
  5
3E4
330
392
100
AcDbDictionary
280
     1
281
     1
  3
ACAD_XREC_ROUNDTRIP
360
3E5
  0
DICTIONARY
  5
337
330
336
100
AcDbDictionary
280
     1
281
     1
  3
ACAD_XREC_ROUNDTRIP
360
3BB
  3
BUMPTILE
360
339
  3
DIFFUSETILE
360
338
  3
OPACITYTILE
360
33C
  3
REFLECTIONTILE
360
33B
  3
REFRACTIONTILE
360
33D
  3
SPECULARTILE
360
33A
  0
DICTIONARY
  5
32F
330
32E
100
AcDbDictionary
280
     1
281
     1
  3
ACAD_XREC_ROUNDTRIP
360
3BA
  3
BUMPTILE
360
331
  3
DIFFUSETILE
360
330
  3
OPACITYTILE
360
334
  3
REFLECTIONTILE
360
333
  3
REFRACTIONTILE
360
335
  3
SPECULARTILE
360
332
  0
DICTIONARY
  5
33F
330
33E
100
AcDbDictionary
280
     1
281
     1
  3
ACAD_XREC_ROUNDTRIP
360
3BC
  3
BUMPTILE
360
341
  3
DIFFUSETILE
360
340
  3
OPACITYTILE
360
344
  3
REFLECTIONTILE
360
343
  3
REFRACTIONTILE
360
345
  3
SPECULARTILE
360
342
  0
DICTIONARY
  5
3B6
330
38C
100
AcDbDictionary
280
     1
281
     1
  3
ACAD_ROUNDTRIP_2008_TABLESTYLE_CELLSTYLEMAP
360
3B7
  3
ACAD_XREC_ROUNDTRIP
360
3E3
  0
DICTIONARY
  5
3C7
330
34C
100
AcDbDictionary
280
     1
281
     1
  3
ACAD_XREC_ROUNDTRIP
360
3C8
  0
DICTIONARY
  5
3CB
330
34E
100
AcDbDictionary
280
     1
281
     1
  3
ACAD_XREC_ROUNDTRIP
360
3CC
  0
DICTIONARY
  5
3C9
330
34D
100
AcDbDictionary
280
     1
281
     1
  3
ACAD_XREC_ROUNDTRIP
360
3CA
  0
DICTIONARY
  5
3C5
330
34B
100
AcDbDictionary
280
     1
281
     1
  3
ACAD_XREC_ROUNDTRIP
360
3C6
  0
DICTIONARY
  5
3D3
330
352
100
AcDbDictionary
280
     1
281
     1
  3
ACAD_XREC_ROUNDTRIP
360
3D4
  0
DICTIONARY
  5
3DB
330
356
100
AcDbDictionary
280
     1
281
     1
  3
ACAD_XREC_ROUNDTRIP
360
3DC
  0
DICTIONARY
  5
3CD
330
34F
100
AcDbDictionary
280
     1
281
     1
  3
ACAD_XREC_ROUNDTRIP
360
3CE
  0
DICTIONARY
  5
3D1
330
351
100
AcDbDictionary
280
     1
281
     1
  3
ACAD_XREC_ROUNDTRIP
360
3D2
  0
DICTIONARY
  5
3E1
330
359
100
AcDbDictionary
280
     1
281
     1
  3
ACAD_XREC_ROUNDTRIP
360
3E2
  0
DICTIONARY
  5
3D9
330
355
100
AcDbDictionary
280
     1
281
     1
  3
ACAD_XREC_ROUNDTRIP
360
3DA
  0
DICTIONARY
  5
3BD
330
347
100
AcDbDictionary
280
     1
281
     1
  3
ACAD_XREC_ROUNDTRIP
360
3BE
  0
DICTIONARY
  5
3BF
330
348
100
AcDbDictionary
280
     1
281
     1
  3
ACAD_XREC_ROUNDTRIP
360
3C0
  0
DICTIONARY
  5
3C1
330
349
100
AcDbDictionary
280
     1
281
     1
  3
ACAD_XREC_ROUNDTRIP
360
3C2
  0
DICTIONARY
  5
3C3
330
34A
100
AcDbDictionary
280
     1
281
     1
  3
ACAD_XREC_ROUNDTRIP
360
3C4
  0
DICTIONARY
  5
3DD
330
357
100
AcDbDictionary
280
     1
281
     1
  3
ACAD_XREC_ROUNDTRIP
360
3DE
  0
DICTIONARY
  5
3D7
330
354
100
AcDbDictionary
280
     1
281
     1
  3
ACAD_XREC_ROUNDTRIP
360
3D8
  0
DICTIONARY
  5
3DF
330
358
100
AcDbDictionary
280
     1
281
     1
  3
ACAD_XREC_ROUNDTRIP
360
3E0
  0
DICTIONARY
  5
3CF
330
350
100
AcDbDictionary
280
     1
281
     1
  3
ACAD_XREC_ROUNDTRIP
360
3D0
  0
DICTIONARY
  5
3D5
330
353
100
AcDbDictionary
280
     1
281
     1
  3
ACAD_XREC_ROUNDTRIP
360
3D6
  0
XRECORD
  5
3E7
102
{ACAD_REACTORS
330
3E6
102
}
330
3E6
100
AcDbXrecord
280
     1
102
SHADEPLOT
 70
     0
102
SHADEPLOTRESLEVEL
 70
     2
102
SHADEPLOTCUSTOMDPI
 70
   300
  0
XRECORD
  5
3E5
102
{ACAD_REACTORS
330
3E4
102
}
330
3E4
100
AcDbXrecord
280
     1
102
SHADEPLOT
 70
     0
102
SHADEPLOTRESLEVEL
 70
     2
102
SHADEPLOTCUSTOMDPI
 70
   300
  0
XRECORD
  5
3BB
102
{ACAD_REACTORS
330
337
102
}
330
337
100
AcDbXrecord
280
     1
102
MATERIAL
148
0.0
149
0.0
149
0.0
 93
        0
 94
      127
282
     0
 72
     0
 77
     0
171
     0
175
     0
179
     0
273
     0
  0
XRECORD
  5
339
102
{ACAD_REACTORS
330
337
102
}
330
337
100
AcDbXrecord
280
     1
270
     1
271
     1
  0
XRECORD
  5
338
102
{ACAD_REACTORS
330
337
102
}
330
337
100
AcDbXrecord
280
     1
270
     1
271
     1
  0
XRECORD
  5
33C
102
{ACAD_REACTORS
330
337
102
}
330
337
100
AcDbXrecord
280
     1
270
     1
271
     1
  0
XRECORD
  5
33B
102
{ACAD_REACTORS
330
337
102
}
330
337
100
AcDbXrecord
280
     1
270
     1
271
     1
  0
XRECORD
  5
33D
102
{ACAD_REACTORS
330
337
102
}
330
337
100
AcDbXrecord
280
     1
270
     1
271
     1
  0
XRECORD
  5
33A
102
{ACAD_REACTORS
330
337
102
}
330
337
100
AcDbXrecord
280
     1
270
     1
271
     1
  0
XRECORD
  5
3BA
102
{ACAD_REACTORS
330
32F
102
}
330
32F
100
AcDbXrecord
280
     1
102
MATERIAL
148
0.0
149
0.0
149
0.0
 93
        0
 94
      127
282
     0
 72
     0
 77
     0
171
     0
175
     0
179
     0
273
     0
  0
XRECORD
  5
331
102
{ACAD_REACTORS
330
32F
102
}
330
32F
100
AcDbXrecord
280
     1
270
     1
271
     1
  0
XRECORD
  5
330
102
{ACAD_REACTORS
330
32F
102
}
330
32F
100
AcDbXrecord
280
     1
270
     1
271
     1
  0
XRECORD
  5
334
102
{ACAD_REACTORS
330
32F
102
}
330
32F
100
AcDbXrecord
280
     1
270
     1
271
     1
  0
XRECORD
  5
333
102
{ACAD_REACTORS
330
32F
102
}
330
32F
100
AcDbXrecord
280
     1
270
     1
271
     1
  0
XRECORD
  5
335
102
{ACAD_REACTORS
330
32F
102
}
330
32F
100
AcDbXrecord
280
     1
270
     1
271
     1
  0
XRECORD
  5
332
102
{ACAD_REACTORS
330
32F
102
}
330
32F
100
AcDbXrecord
280
     1
270
     1
271
     1
  0
XRECORD
  5
3BC
102
{ACAD_REACTORS
330
33F
102
}
330
33F
100
AcDbXrecord
280
     1
102
MATERIAL
148
0.0
149
0.0
149
0.0
 93
        0
 94
      127
282
     0
 72
     0
 77
     0
171
     0
175
     0
179
     0
273
     0
  0
XRECORD
  5
341
102
{ACAD_REACTORS
330
33F
102
}
330
33F
100
AcDbXrecord
280
     1
270
     1
271
     1
  0
XRECORD
  5
340
102
{ACAD_REACTORS
330
33F
102
}
330
33F
100
AcDbXrecord
280
     1
270
     1
271
     1
  0
XRECORD
  5
344
102
{ACAD_REACTORS
330
33F
102
}
330
33F
100
AcDbXrecord
280
     1
270
     1
271
     1
  0
XRECORD
  5
343
102
{ACAD_REACTORS
330
33F
102
}
330
33F
100
AcDbXrecord
280
     1
270
     1
271
     1
  0
XRECORD
  5
345
102
{ACAD_REACTORS
330
33F
102
}
330
33F
100
AcDbXrecord
280
     1
270
     1
271
     1
  0
XRECORD
  5
342
102
{ACAD_REACTORS
330
33F
102
}
330
33F
100
AcDbXrecord
280
     1
270
     1
271
     1
  0
CELLSTYLEMAP
  5
3B7
102
{ACAD_REACTORS
330
3B6
102
}
330
3B6
100
AcDbCellStyleMap
 90
        3
300
CELLSTYLE
  1
TABLEFORMAT_BEGIN
 90
        5
170
     1
 91
        0
 92
    32768
 62
   257
 93
        1
300
CONTENTFORMAT
  1
CONTENTFORMAT_BEGIN
 90
        0
 91
        0
 92
      512
 93
        0
300

 40
0.0
140
1.0
 94
        5
 62
     0
340
37D
144
0.25
309
CONTENTFORMAT_END
171
     0
 94
        0
309
TABLEFORMAT_END
  1
CELLSTYLE_BEGIN
 90
        1
 91
        1
300
_TITLE
309
CELLSTYLE_END
300
CELLSTYLE
  1
TABLEFORMAT_BEGIN
 90
        5
170
     1
 91
        0
 92
        0
 62
   257
 93
        1
300
CONTENTFORMAT
  1
CONTENTFORMAT_BEGIN
 90
        0
 91
        0
 92
      512
 93
        0
300

 40
0.0
140
1.0
 94
        5
 62
     0
340
37D
144
0.18
309
CONTENTFORMAT_END
171
     0
 94
        0
309
TABLEFORMAT_END
  1
CELLSTYLE_BEGIN
 90
        2
 91
        1
300
_HEADER
309
CELLSTYLE_END
300
CELLSTYLE
  1
TABLEFORMAT_BEGIN
 90
        5
170
     1
 91
        0
 92
        0
 62
   257
 93
        1
300
CONTENTFORMAT
  1
CONTENTFORMAT_BEGIN
 90
        0
 91
        0
 92
      512
 93
        0
300

 40
0.0
140
1.0
 94
        2
 62
     0
340
37D
144
0.18
309
CONTENTFORMAT_END
171
     0
 94
        0
309
TABLEFORMAT_END
  1
CELLSTYLE_BEGIN
 90
        3
 91
        2
300
_DATA
309
CELLSTYLE_END
  0
XRECORD
  5
3E3
102
{ACAD_REACTORS
330
3B6
102
}
330
3B6
100
AcDbXrecord
280
     1
102
ACAD_ROUNDTRIP_PRE2007_TABLESTYLE
 90
      512
 91
        0
  1

 92
      512
 93
        0
  2

 94
      512
 95
        0
  3

  0
XRECORD
  5
3C8
102
{ACAD_REACTORS
330
3C7
102
}
330
3C7
100
AcDbXrecord
280
     1
102
RTVSPropertyOp0
 70
     1
102
RTVSPropertyOp1
 70
     1
102
RTVSPropertyOp2
 70
     1
102
RTVSPropertyOp3
 70
     1
102
RTVSPropertyOp4
 70
     1
102
RTVSPropertyOp5
 70
     1
102
RTVSPropertyOp6
 70
     1
102
RTVSPropertyOp7
 70
     1
102
RTVSPropertyOp8
 70
     1
102
RTVSPropertyOp9
 70
     1
102
RTVSPropertyOp10
 70
     1
102
RTVSPropertyOp11
 70
     1
102
RTVSPropertyOp12
 70
     1
102
RTVSPropertyOp13
 70
     1
102
RTVSPropertyOp14
 70
     1
102
RTVSPropertyOp15
 70
     1
102
RTVSPropertyOp16
 70
     1
102
RTVSPropertyOp17
 70
     1
102
RTVSPropertyOp18
 70
     1
102
RTVSPropertyOp19
 70
     1
102
RTVSPropertyOp20
 70
     1
102
RTVSPropertyOp21
 70
     1
102
RTVSPropertyOp22
 70
     1
102
RTVSPropertyOp23
 70
     1
102
RTVSPropertyOp24
 70
     1
102
RTVSPropertyOp25
 70
     1
102
RTVSPropertyOp26
 70
     1
102
RTVSPropertyOp27
 70
     1
  0
XRECORD
  5
3CC
102
{ACAD_REACTORS
330
3CB
102
}
330
3CB
100
AcDbXrecord
280
     1
102
RTVSPropertyOp0
 70
     1
102
RTVSPropertyOp1
 70
     1
102
RTVSPropertyOp2
 70
     1
102
RTVSPropertyOp3
 70
     1
102
RTVSPropertyOp4
 70
     1
102
RTVSPropertyOp5
 70
     1
102
RTVSPropertyOp6
 70
     1
102
RTVSPropertyOp7
 70
     1
102
RTVSPropertyOp8
 70
     1
102
RTVSPropertyOp9
 70
     1
102
RTVSPropertyOp10
 70
     1
102
RTVSPropertyOp11
 70
     1
102
RTVSPropertyOp12
 70
     1
102
RTVSPropertyOp13
 70
     1
102
RTVSPropertyOp14
 70
     1
102
RTVSPropertyOp15
 70
     1
102
RTVSPropertyOp16
 70
     1
102
RTVSPropertyOp17
 70
     1
102
RTVSPropertyOp18
 70
     1
102
RTVSPropertyOp19
 70
     1
102
RTVSPropertyOp20
 70
     1
102
RTVSPropertyOp21
 70
     1
102
RTVSPropertyOp22
 70
     1
102
RTVSPropertyOp23
 70
     1
102
RTVSPropertyOp24
 70
     1
102
RTVSPropertyOp25
 70
     1
102
RTVSPropertyOp26
 70
     1
102
RTVSPropertyOp27
 70
     1
  0
XRECORD
  5
3CA
102
{ACAD_REACTORS
330
3C9
102
}
330
3C9
100
AcDbXrecord
280
     1
102
RTVSPropertyOp0
 70
     1
102
RTVSPropertyOp1
 70
     1
102
RTVSPropertyOp2
 70
     1
102
RTVSPropertyOp3
 70
     1
102
RTVSPropertyOp4
 70
     1
102
RTVSPropertyOp5
 70
     1
102
RTVSPropertyOp6
 70
     1
102
RTVSPropertyOp7
 70
     1
102
RTVSPropertyOp8
 70
     1
102
RTVSPropertyOp9
 70
     1
102
RTVSPropertyOp10
 70
     1
102
RTVSPropertyOp11
 70
     1
102
RTVSPropertyOp12
 70
     1
102
RTVSPropertyOp13
 70
     1
102
RTVSPropertyOp14
 70
     1
102
RTVSPropertyOp15
 70
     1
102
RTVSPropertyOp16
 70
     1
102
RTVSPropertyOp17
 70
     1
102
RTVSPropertyOp18
 70
     1
102
RTVSPropertyOp19
 70
     1
102
RTVSPropertyOp20
 70
     1
102
RTVSPropertyOp21
 70
     1
102
RTVSPropertyOp22
 70
     1
102
RTVSPropertyOp23
 70
     1
102
RTVSPropertyOp24
 70
     1
102
RTVSPropertyOp25
 70
     1
102
RTVSPropertyOp26
 70
     1
102
RTVSPropertyOp27
 70
     1
  0
XRECORD
  5
3C6
102
{ACAD_REACTORS
330
3C5
102
}
330
3C5
100
AcDbXrecord
280
     1
102
RTVSPropertyOp0
 70
     1
102
RTVSPropertyOp1
 70
     1
102
RTVSPropertyOp2
 70
     1
102
RTVSPropertyOp3
 70
     1
102
RTVSPropertyOp4
 70
     1
102
RTVSPropertyOp5
 70
     1
102
RTVSPropertyOp6
 70
     1
102
RTVSPropertyOp7
 70
     1
102
RTVSPropertyOp8
 70
     1
102
RTVSPropertyOp9
 70
     1
102
RTVSPropertyOp10
 70
     1
102
RTVSPropertyOp11
 70
     1
102
RTVSPropertyOp12
 70
     1
102
RTVSPropertyOp13
 70
     1
102
RTVSPropertyOp14
 70
     1
102
RTVSPropertyOp15
 70
     1
102
RTVSPropertyOp16
 70
     1
102
RTVSPropertyOp17
 70
     1
102
RTVSPropertyOp18
 70
     1
102
RTVSPropertyOp19
 70
     1
102
RTVSPropertyOp20
 70
     1
102
RTVSPropertyOp21
 70
     1
102
RTVSPropertyOp22
 70
     1
102
RTVSPropertyOp23
 70
     1
102
RTVSPropertyOp24
 70
     1
102
RTVSPropertyOp25
 70
     1
102
RTVSPropertyOp26
 70
     1
102
RTVSPropertyOp27
 70
     1
  0
XRECORD
  5
3D4
102
{ACAD_REACTORS
330
3D3
102
}
330
3D3
100
AcDbXrecord
280
     1
102
RTVSPropertyOp0
 70
     1
102
RTVSPropertyOp1
 70
     1
102
RTVSPropertyOp2
 70
     1
102
RTVSPropertyOp3
 70
     1
102
RTVSPropertyOp4
 70
     1
102
RTVSPropertyOp5
 70
     1
102
RTVSPropertyOp6
 70
     1
102
RTVSPropertyOp7
 70
     1
102
RTVSPropertyOp8
 70
     1
102
RTVSPropertyOp9
 70
     1
102
RTVSPropertyOp10
 70
     1
102
RTVSPropertyOp11
 70
     1
102
RTVSPropertyOp12
 70
     1
102
RTVSPropertyOp13
 70
     1
102
RTVSPropertyOp14
 70
     1
102
RTVSPropertyOp15
 70
     1
102
RTVSPropertyOp16
 70
     1
102
RTVSPropertyOp17
 70
     1
102
RTVSPropertyOp18
 70
     1
102
RTVSPropertyOp19
 70
     1
102
RTVSPropertyOp20
 70
     1
102
RTVSPropertyOp21
 70
     1
102
RTVSPropertyOp22
 70
     1
102
RTVSPropertyOp23
 70
     1
102
RTVSPropertyOp24
 70
     1
102
RTVSPropertyOp25
 70
     1
102
RTVSPropertyOp26
 70
     1
102
RTVSPropertyOp27
 70
     1
  0
XRECORD
  5
3DC
102
{ACAD_REACTORS
330
3DB
102
}
330
3DB
100
AcDbXrecord
280
     1
102
RTVSPropertyOp0
 70
     1
102
RTVSPropertyOp1
 70
     1
102
RTVSPropertyOp2
 70
     1
102
RTVSPropertyOp3
 70
     1
102
RTVSPropertyOp4
 70
     1
102
RTVSPropertyOp5
 70
     1
102
RTVSPropertyOp6
 70
     1
102
RTVSPropertyOp7
 70
     1
102
RTVSPropertyOp8
 70
     1
102
RTVSPropertyOp9
 70
     1
102
RTVSPropertyOp10
 70
     1
102
RTVSPropertyOp11
 70
     1
102
RTVSPropertyOp12
 70
     1
102
RTVSPropertyOp13
 70
     1
102
RTVSPropertyOp14
 70
     1
102
RTVSPropertyOp15
 70
     1
102
RTVSPropertyOp16
 70
     1
102
RTVSPropertyOp17
 70
     1
102
RTVSPropertyOp18
 70
     1
102
RTVSPropertyOp19
 70
     1
102
RTVSPropertyOp20
 70
     1
102
RTVSPropertyOp21
 70
     1
102
RTVSPropertyOp22
 70
     1
102
RTVSPropertyOp23
 70
     1
102
RTVSPropertyOp24
 70
     1
102
RTVSPropertyOp25
 70
     1
102
RTVSPropertyOp26
 70
     1
102
RTVSPropertyOp27
 70
     1
  0
XRECORD
  5
3CE
102
{ACAD_REACTORS
330
3CD
102
}
330
3CD
100
AcDbXrecord
280
     1
102
RTVSPropertyOp0
 70
     1
102
RTVSPropertyOp1
 70
     1
102
RTVSPropertyOp2
 70
     1
102
RTVSPropertyOp3
 70
     1
102
RTVSPropertyOp4
 70
     1
102
RTVSPropertyOp5
 70
     1
102
RTVSPropertyOp6
 70
     1
102
RTVSPropertyOp7
 70
     1
102
RTVSPropertyOp8
 70
     1
102
RTVSPropertyOp9
 70
     1
102
RTVSPropertyOp10
 70
     1
102
RTVSPropertyOp11
 70
     1
102
RTVSPropertyOp12
 70
     1
102
RTVSPropertyOp13
 70
     1
102
RTVSPropertyOp14
 70
     1
102
RTVSPropertyOp15
 70
     1
102
RTVSPropertyOp16
 70
     1
102
RTVSPropertyOp17
 70
     1
102
RTVSPropertyOp18
 70
     1
102
RTVSPropertyOp19
 70
     1
102
RTVSPropertyOp20
 70
     1
102
RTVSPropertyOp21
 70
     1
102
RTVSPropertyOp22
 70
     1
102
RTVSPropertyOp23
 70
     1
102
RTVSPropertyOp24
 70
     1
102
RTVSPropertyOp25
 70
     1
102
RTVSPropertyOp26
 70
     1
102
RTVSPropertyOp27
 70
     1
  0
XRECORD
  5
3D2
102
{ACAD_REACTORS
330
3D1
102
}
330
3D1
100
AcDbXrecord
280
     1
102
RTVSPropertyOp0
 70
     1
102
RTVSPropertyOp1
 70
     1
102
RTVSPropertyOp2
 70
     1
102
RTVSPropertyOp3
 70
     1
102
RTVSPropertyOp4
 70
     1
102
RTVSPropertyOp5
 70
     1
102
RTVSPropertyOp6
 70
     1
102
RTVSPropertyOp7
 70
     1
102
RTVSPropertyOp8
 70
     1
102
RTVSPropertyOp9
 70
     1
102
RTVSPropertyOp10
 70
     1
102
RTVSPropertyOp11
 70
     1
102
RTVSPropertyOp12
 70
     1
102
RTVSPropertyOp13
 70
     1
102
RTVSPropertyOp14
 70
     1
102
RTVSPropertyOp15
 70
     1
102
RTVSPropertyOp16
 70
     1
102
RTVSPropertyOp17
 70
     1
102
RTVSPropertyOp18
 70
     1
102
RTVSPropertyOp19
 70
     1
102
RTVSPropertyOp20
 70
     1
102
RTVSPropertyOp21
 70
     1
102
RTVSPropertyOp22
 70
     1
102
RTVSPropertyOp23
 70
     1
102
RTVSPropertyOp24
 70
     1
102
RTVSPropertyOp25
 70
     1
102
RTVSPropertyOp26
 70
     1
102
RTVSPropertyOp27
 70
     1
  0
XRECORD
  5
3E2
102
{ACAD_REACTORS
330
3E1
102
}
330
3E1
100
AcDbXrecord
280
     1
102
RTVSPropertyOp0
 70
     0
102
RTVSPropertyOp1
 70
     0
102
RTVSPropertyOp2
 70
     0
102
RTVSPropertyOp3
 70
     0
102
RTVSPropertyOp4
 70
     0
102
RTVSPropertyOp5
 70
     0
102
RTVSPropertyOp6
 70
     0
102
RTVSPropertyOp7
 70
     0
102
RTVSPropertyOp8
 70
     0
102
RTVSPropertyOp9
 70
     0
102
RTVSPropertyOp10
 70
     0
102
RTVSPropertyOp11
 70
     0
102
RTVSPropertyOp12
 70
     0
102
RTVSPropertyOp13
 70
     0
102
RTVSPropertyOp14
 70
     2
102
RTVSPropertyOp15
 70
     0
102
RTVSPropertyOp16
 70
     0
102
RTVSPropertyOp17
 70
     0
102
RTVSPropertyOp18
 70
     0
102
RTVSPropertyOp19
 70
     0
102
RTVSPropertyOp20
 70
     0
102
RTVSPropertyOp21
 70
     0
102
RTVSPropertyOp22
 70
     0
102
RTVSPropertyOp23
 70
     0
102
RTVSPropertyOp24
 70
     0
102
RTVSPropertyOp25
 70
     0
102
RTVSPropertyOp26
 70
     0
102
RTVSPropertyOp27
 70
     0
  0
XRECORD
  5
3DA
102
{ACAD_REACTORS
330
3D9
102
}
330
3D9
100
AcDbXrecord
280
     1
102
RTVSPropertyOp0
 70
     1
102
RTVSPropertyOp1
 70
     1
102
RTVSPropertyOp2
 70
     1
102
RTVSPropertyOp3
 70
     1
102
RTVSPropertyOp4
 70
     1
102
RTVSPropertyOp5
 70
     1
102
RTVSPropertyOp6
 70
     1
102
RTVSPropertyOp7
 70
     1
102
RTVSPropertyOp8
 70
     1
102
RTVSPropertyOp9
 70
     1
102
RTVSPropertyOp10
 70
     1
102
RTVSPropertyOp11
 70
     1
102
RTVSPropertyOp12
 70
     1
102
RTVSPropertyOp13
 70
     1
102
RTVSPropertyOp14
 70
     1
102
RTVSPropertyOp15
 70
     1
102
RTVSPropertyOp16
 70
     1
102
RTVSPropertyOp17
 70
     1
102
RTVSPropertyOp18
 70
     1
102
RTVSPropertyOp19
 70
     1
102
RTVSPropertyOp20
 70
     1
102
RTVSPropertyOp21
 70
     1
102
RTVSPropertyOp22
 70
     1
102
RTVSPropertyOp23
 70
     1
102
RTVSPropertyOp24
 70
     1
102
RTVSPropertyOp25
 70
     1
102
RTVSPropertyOp26
 70
     1
102
RTVSPropertyOp27
 70
     1
  0
XRECORD
  5
3BE
102
{ACAD_REACTORS
330
3BD
102
}
330
3BD
100
AcDbXrecord
280
     1
102
RTVSPropertyOp0
 70
     1
102
RTVSPropertyOp1
 70
     1
102
RTVSPropertyOp2
 70
     1
102
RTVSPropertyOp3
 70
     1
102
RTVSPropertyOp4
 70
     1
102
RTVSPropertyOp5
 70
     1
102
RTVSPropertyOp6
 70
     1
102
RTVSPropertyOp7
 70
     1
102
RTVSPropertyOp8
 70
     1
102
RTVSPropertyOp9
 70
     1
102
RTVSPropertyOp10
 70
     1
102
RTVSPropertyOp11
 70
     1
102
RTVSPropertyOp12
 70
     1
102
RTVSPropertyOp13
 70
     1
102
RTVSPropertyOp14
 70
     1
102
RTVSPropertyOp15
 70
     1
102
RTVSPropertyOp16
 70
     1
102
RTVSPropertyOp17
 70
     1
102
RTVSPropertyOp18
 70
     1
102
RTVSPropertyOp19
 70
     1
102
RTVSPropertyOp20
 70
     1
102
RTVSPropertyOp21
 70
     1
102
RTVSPropertyOp22
 70
     1
102
RTVSPropertyOp23
 70
     1
102
RTVSPropertyOp24
 70
     1
102
RTVSPropertyOp25
 70
     1
102
RTVSPropertyOp26
 70
     1
102
RTVSPropertyOp27
 70
     1
  0
XRECORD
  5
3C0
102
{ACAD_REACTORS
330
3BF
102
}
330
3BF
100
AcDbXrecord
280
     1
102
RTVSPropertyOp0
 70
     1
102
RTVSPropertyOp1
 70
     1
102
RTVSPropertyOp2
 70
     1
102
RTVSPropertyOp3
 70
     1
102
RTVSPropertyOp4
 70
     1
102
RTVSPropertyOp5
 70
     1
102
RTVSPropertyOp6
 70
     1
102
RTVSPropertyOp7
 70
     1
102
RTVSPropertyOp8
 70
     1
102
RTVSPropertyOp9
 70
     1
102
RTVSPropertyOp10
 70
     1
102
RTVSPropertyOp11
 70
     1
102
RTVSPropertyOp12
 70
     1
102
RTVSPropertyOp13
 70
     1
102
RTVSPropertyOp14
 70
     1
102
RTVSPropertyOp15
 70
     1
102
RTVSPropertyOp16
 70
     1
102
RTVSPropertyOp17
 70
     1
102
RTVSPropertyOp18
 70
     1
102
RTVSPropertyOp19
 70
     1
102
RTVSPropertyOp20
 70
     1
102
RTVSPropertyOp21
 70
     1
102
RTVSPropertyOp22
 70
     1
102
RTVSPropertyOp23
 70
     1
102
RTVSPropertyOp24
 70
     1
102
RTVSPropertyOp25
 70
     1
102
RTVSPropertyOp26
 70
     1
102
RTVSPropertyOp27
 70
     1
  0
XRECORD
  5
3C2
102
{ACAD_REACTORS
330
3C1
102
}
330
3C1
100
AcDbXrecord
280
     1
102
RTVSPropertyOp0
 70
     1
102
RTVSPropertyOp1
 70
     1
102
RTVSPropertyOp2
 70
     1
102
RTVSPropertyOp3
 70
     1
102
RTVSPropertyOp4
 70
     1
102
RTVSPropertyOp5
 70
     1
102
RTVSPropertyOp6
 70
     1
102
RTVSPropertyOp7
 70
     1
102
RTVSPropertyOp8
 70
     1
102
RTVSPropertyOp9
 70
     1
102
RTVSPropertyOp10
 70
     1
102
RTVSPropertyOp11
 70
     1
102
RTVSPropertyOp12
 70
     1
102
RTVSPropertyOp13
 70
     1
102
RTVSPropertyOp14
 70
     1
102
RTVSPropertyOp15
 70
     1
102
RTVSPropertyOp16
 70
     1
102
RTVSPropertyOp17
 70
     1
102
RTVSPropertyOp18
 70
     1
102
RTVSPropertyOp19
 70
     1
102
RTVSPropertyOp20
 70
     1
102
RTVSPropertyOp21
 70
     1
102
RTVSPropertyOp22
 70
     1
102
RTVSPropertyOp23
 70
     1
102
RTVSPropertyOp24
 70
     1
102
RTVSPropertyOp25
 70
     1
102
RTVSPropertyOp26
 70
     1
102
RTVSPropertyOp27
 70
     1
  0
XRECORD
  5
3C4
102
{ACAD_REACTORS
330
3C3
102
}
330
3C3
100
AcDbXrecord
280
     1
102
RTVSPropertyOp0
 70
     1
102
RTVSPropertyOp1
 70
     1
102
RTVSPropertyOp2
 70
     1
102
RTVSPropertyOp3
 70
     1
102
RTVSPropertyOp4
 70
     1
102
RTVSPropertyOp5
 70
     1
102
RTVSPropertyOp6
 70
     1
102
RTVSPropertyOp7
 70
     1
102
RTVSPropertyOp8
 70
     1
102
RTVSPropertyOp9
 70
     1
102
RTVSPropertyOp10
 70
     1
102
RTVSPropertyOp11
 70
     1
102
RTVSPropertyOp12
 70
     1
102
RTVSPropertyOp13
 70
     1
102
RTVSPropertyOp14
 70
     1
102
RTVSPropertyOp15
 70
     1
102
RTVSPropertyOp16
 70
     1
102
RTVSPropertyOp17
 70
     1
102
RTVSPropertyOp18
 70
     1
102
RTVSPropertyOp19
 70
     1
102
RTVSPropertyOp20
 70
     1
102
RTVSPropertyOp21
 70
     1
102
RTVSPropertyOp22
 70
     1
102
RTVSPropertyOp23
 70
     1
102
RTVSPropertyOp24
 70
     1
102
RTVSPropertyOp25
 70
     1
102
RTVSPropertyOp26
 70
     1
102
RTVSPropertyOp27
 70
     1
  0
XRECORD
  5
3DE
102
{ACAD_REACTORS
330
3DD
102
}
330
3DD
100
AcDbXrecord
280
     1
102
RTVSPropertyOp0
 70
     0
102
RTVSPropertyOp1
 70
     0
102
RTVSPropertyOp2
 70
     0
102
RTVSPropertyOp3
 70
     0
102
RTVSPropertyOp4
 70
     0
102
RTVSPropertyOp5
 70
     0
102
RTVSPropertyOp6
 70
     0
102
RTVSPropertyOp7
 70
     0
102
RTVSPropertyOp8
 70
     0
102
RTVSPropertyOp9
 70
     0
102
RTVSPropertyOp10
 70
     0
102
RTVSPropertyOp11
 70
     0
102
RTVSPropertyOp12
 70
     0
102
RTVSPropertyOp13
 70
     0
102
RTVSPropertyOp14
 70
     2
102
RTVSPropertyOp15
 70
     0
102
RTVSPropertyOp16
 70
     0
102
RTVSPropertyOp17
 70
     0
102
RTVSPropertyOp18
 70
     0
102
RTVSPropertyOp19
 70
     0
102
RTVSPropertyOp20
 70
     0
102
RTVSPropertyOp21
 70
     0
102
RTVSPropertyOp22
 70
     0
102
RTVSPropertyOp23
 70
     0
102
RTVSPropertyOp24
 70
     0
102
RTVSPropertyOp25
 70
     0
102
RTVSPropertyOp26
 70
     0
102
RTVSPropertyOp27
 70
     0
  0
XRECORD
  5
3D8
102
{ACAD_REACTORS
330
3D7
102
}
330
3D7
100
AcDbXrecord
280
     1
102
RTVSPropertyOp0
 70
     1
102
RTVSPropertyOp1
 70
     1
102
RTVSPropertyOp2
 70
     1
102
RTVSPropertyOp3
 70
     1
102
RTVSPropertyOp4
 70
     1
102
RTVSPropertyOp5
 70
     1
102
RTVSPropertyOp6
 70
     1
102
RTVSPropertyOp7
 70
     1
102
RTVSPropertyOp8
 70
     1
102
RTVSPropertyOp9
 70
     1
102
RTVSPropertyOp10
 70
     1
102
RTVSPropertyOp11
 70
     1
102
RTVSPropertyOp12
 70
     1
102
RTVSPropertyOp13
 70
     1
102
RTVSPropertyOp14
 70
     1
102
RTVSPropertyOp15
 70
     1
102
RTVSPropertyOp16
 70
     1
102
RTVSPropertyOp17
 70
     1
102
RTVSPropertyOp18
 70
     1
102
RTVSPropertyOp19
 70
     1
102
RTVSPropertyOp20
 70
     1
102
RTVSPropertyOp21
 70
     1
102
RTVSPropertyOp22
 70
     1
102
RTVSPropertyOp23
 70
     1
102
RTVSPropertyOp24
 70
     1
102
RTVSPropertyOp25
 70
     1
102
RTVSPropertyOp26
 70
     1
102
RTVSPropertyOp27
 70
     1
  0
XRECORD
  5
3E0
102
{ACAD_REACTORS
330
3DF
102
}
330
3DF
100
AcDbXrecord
280
     1
102
RTVSPropertyOp0
 70
     0
102
RTVSPropertyOp1
 70
     0
102
RTVSPropertyOp2
 70
     0
102
RTVSPropertyOp3
 70
     0
102
RTVSPropertyOp4
 70
     0
102
RTVSPropertyOp5
 70
     0
102
RTVSPropertyOp6
 70
     0
102
RTVSPropertyOp7
 70
     0
102
RTVSPropertyOp8
 70
     0
102
RTVSPropertyOp9
 70
     0
102
RTVSPropertyOp10
 70
     0
102
RTVSPropertyOp11
 70
     0
102
RTVSPropertyOp12
 70
     0
102
RTVSPropertyOp13
 70
     0
102
RTVSPropertyOp14
 70
     2
102
RTVSPropertyOp15
 70
     0
102
RTVSPropertyOp16
 70
     0
102
RTVSPropertyOp17
 70
     0
102
RTVSPropertyOp18
 70
     0
102
RTVSPropertyOp19
 70
     0
102
RTVSPropertyOp20
 70
     0
102
RTVSPropertyOp21
 70
     0
102
RTVSPropertyOp22
 70
     0
102
RTVSPropertyOp23
 70
     0
102
RTVSPropertyOp24
 70
     0
102
RTVSPropertyOp25
 70
     0
102
RTVSPropertyOp26
 70
     0
102
RTVSPropertyOp27
 70
     0
  0
XRECORD
  5
3D0
102
{ACAD_REACTORS
330
3CF
102
}
330
3CF
100
AcDbXrecord
280
     1
102
RTVSPropertyOp0
 70
     1
102
RTVSPropertyOp1
 70
     1
102
RTVSPropertyOp2
 70
     1
102
RTVSPropertyOp3
 70
     1
102
RTVSPropertyOp4
 70
     1
102
RTVSPropertyOp5
 70
     1
102
RTVSPropertyOp6
 70
     1
102
RTVSPropertyOp7
 70
     1
102
RTVSPropertyOp8
 70
     1
102
RTVSPropertyOp9
 70
     1
102
RTVSPropertyOp10
 70
     1
102
RTVSPropertyOp11
 70
     1
102
RTVSPropertyOp12
 70
     1
102
RTVSPropertyOp13
 70
     1
102
RTVSPropertyOp14
 70
     1
102
RTVSPropertyOp15
 70
     1
102
RTVSPropertyOp16
 70
     1
102
RTVSPropertyOp17
 70
     1
102
RTVSPropertyOp18
 70
     1
102
RTVSPropertyOp19
 70
     1
102
RTVSPropertyOp20
 70
     1
102
RTVSPropertyOp21
 70
     1
102
RTVSPropertyOp22
 70
     1
102
RTVSPropertyOp23
 70
     1
102
RTVSPropertyOp24
 70
     1
102
RTVSPropertyOp25
 70
     1
102
RTVSPropertyOp26
 70
     1
102
RTVSPropertyOp27
 70
     1
  0
XRECORD
  5
3D6
102
{ACAD_REACTORS
330
3D5
102
}
330
3D5
100
AcDbXrecord
280
     1
102
RTVSPropertyOp0
 70
     1
102
RTVSPropertyOp1
 70
     1
102
RTVSPropertyOp2
 70
     1
102
RTVSPropertyOp3
 70
     1
102
RTVSPropertyOp4
 70
     1
102
RTVSPropertyOp5
 70
     1
102
RTVSPropertyOp6
 70
     1
102
RTVSPropertyOp7
 70
     1
102
RTVSPropertyOp8
 70
     1
102
RTVSPropertyOp9
 70
     1
102
RTVSPropertyOp10
 70
     1
102
RTVSPropertyOp11
 70
     1
102
RTVSPropertyOp12
 70
     1
102
RTVSPropertyOp13
 70
     1
102
RTVSPropertyOp14
 70
     1
102
RTVSPropertyOp15
 70
     1
102
RTVSPropertyOp16
 70
     1
102
RTVSPropertyOp17
 70
     1
102
RTVSPropertyOp18
 70
     1
102
RTVSPropertyOp19
 70
     1
102
RTVSPropertyOp20
 70
     1
102
RTVSPropertyOp21
 70
     1
102
RTVSPropertyOp22
 70
     1
102
RTVSPropertyOp23
 70
     1
102
RTVSPropertyOp24
 70
     1
102
RTVSPropertyOp25
 70
     1
102
RTVSPropertyOp26
 70
     1
102
RTVSPropertyOp27
 70
     1
  0
ENDSEC
  0
EOF
