  0
SECTION
  2
HEADER
  9
$ACADVER
  1
AC1009
  9
$INSBASE
 10
0.0
 20
0.0
 30
0.0
  9
$EXTMIN
 10
9.9963383446405487
 20
2.381287252508741
 30
-0.0015258207003583
  9
$EXTMAX
 10
190.00579878222879
 20
270.00824037474621
 30
0.0000000349246037
  9
$LIMMIN
 10
0.0
 20
0.0
  9
$LIMMAX
 10
0.0
 20
0.0
  9
$ORTHOMODE
 70
     0
  9
$REGENMODE
 70
     1
  9
$FILLMODE
 70
     1
  9
$QTEXTMODE
 70
     0
  9
$MIRRTEXT
 70
     1
  9
$DRAGMODE
 70
     2
  9
$LTSCALE
 40
5.0800000000000001
  9
$OSMODE
 70
   231
  9
$ATTMODE
 70
     1
  9
$TEXTSIZE
 40
0.0
  9
$TRACEWID
 40
1.0
  9
$TEXTSTYLE
  7
STANDARD
  9
$CLAYER
  8
DATA
  9
$CELTYPE
  6
BYLAYER
  9
$CECOLOR
 62
   256
  9
$DIMSCALE
 40
1.0
  9
$DIMASZ
 40
0.18
  9
$DIMEXO
 40
0.0625
  9
$DIMDLI
 40
0.38
  9
$DIMRND
 40
0.0
  9
$DIMDLE
 40
0.0
  9
$DIMEXE
 40
0.18
  9
$DIMTP
 40
0.0
  9
$DIMTM
 40
0.0
  9
$DIMTXT
 40
0.18
  9
$DIMCEN
 40
0.09
  9
$DIMTSZ
 40
0.0
  9
$DIMTOL
 70
     0
  9
$DIMLIM
 70
     0
  9
$DIMTIH
 70
     1
  9
$DIMTOH
 70
     1
  9
$DIMSE1
 70
     0
  9
$DIMSE2
 70
     0
  9
$DIMTAD
 70
     0
  9
$DIMZIN
 70
     0
  9
$DIMBLK
  1

  9
$DIMASO
 70
     1
  9
$DIMSHO
 70
     1
  9
$DIMPOST
  1

  9
$DIMAPOST
  1

  9
$DIMALT
 70
     0
  9
$DIMALTD
 70
     2
  9
$DIMALTF
 40
25.399999999999999
  9
$DIMLFAC
 40
1.0
  9
$DIMTOFL
 70
     0
  9
$DIMTVP
 40
0.0
  9
$DIMTIX
 70
     0
  9
$DIMSOXD
 70
     0
  9
$DIMSAH
 70
     0
  9
$DIMBLK1
  1

  9
$DIMBLK2
  1

  9
$DIMSTYLE
  2
STANDARD
  9
$DIMCLRD
 70
     0
  9
$DIMCLRE
 70
     0
  9
$DIMCLRT
 70
     0
  9
$DIMTFAC
 40
1.0
  9
$DIMGAP
 40
0.09
  9
$LUNITS
 70
     2
  9
$LUPREC
 70
     4
  9
$SKETCHINC
 40
0.1
  9
$FILLETRAD
 40
0.0
  9
$AUNITS
 70
     0
  9
$AUPREC
 70
     0
  9
$MENU
  1
acad
  9
$ELEVATION
 40
0.0
  9
$PELEVATION
 40
0.0
  9
$THICKNESS
 40
0.0
  9
$LIMCHECK
 70
     0
  9
$BLIPMODE
 70
     0
  9
$CHAMFERA
 40
0.0
  9
$CHAMFERB
 40
0.0
  9
$SKPOLY
 70
     0
  9
$TDCREATE
 40
2456176.5888310191
  9
$TDUPDATE
 40
2456176.5910267588
  9
$TDINDWG
 40
0.000289919
  9
$TDUSRTIMER
 40
0.000289919
  9
$USRTIMER
 70
     1
  9
$ANGBASE
 50
0.0
  9
$ANGDIR
 70
     0
  9
$PDMODE
 70
     1
  9
$PDSIZE
 40
-2.0
  9
$PLINEWID
 40
0.0
  9
$COORDS
 70
     2
  9
$SPLFRAME
 70
     0
  9
$SPLINETYPE
 70
     6
  9
$SPLINESEGS
 70
     8
  9
$ATTDIA
 70
     0
  9
$ATTREQ
 70
     1
  9
$HANDLING
 70
     1
  9
$HANDSEED
  5
481
  9
$SURFTAB1
 70
     6
  9
$SURFTAB2
 70
     6
  9
$SURFTYPE
 70
     6
  9
$SURFU
 70
     6
  9
$SURFV
 70
     6
  9
$UCSNAME
  2

  9
$UCSORG
 10
0.0
 20
0.0
 30
0.0
  9
$UCSXDIR
 10
1.0
 20
0.0
 30
0.0
  9
$UCSYDIR
 10
0.0
 20
1.0
 30
0.0
  9
$PUCSNAME
  2

  9
$PUCSORG
 10
0.0
 20
0.0
 30
0.0
  9
$PUCSXDIR
 10
1.0
 20
0.0
 30
0.0
  9
$PUCSYDIR
 10
0.0
 20
1.0
 30
0.0
  9
$USERI1
 70
     0
  9
$USERI2
 70
     0
  9
$USERI3
 70
     0
  9
$USERI4
 70
     0
  9
$USERI5
 70
     0
  9
$USERR1
 40
0.0
  9
$USERR2
 40
0.0
  9
$USERR3
 40
0.0
  9
$USERR4
 40
0.0
  9
$USERR5
 40
0.0
  9
$WORLDVIEW
 70
     1
  9
$SHADEDGE
 70
     3
  9
$SHADEDIF
 70
    70
  9
$TILEMODE
 70
     1
  9
$MAXACTVP
 70
    64
  9
$PLIMCHECK
 70
     0
  9
$PEXTMIN
 10
1.0000000000000000E+020
 20
1.0000000000000000E+020
 30
1.0000000000000000E+020
  9
$PEXTMAX
 10
-1.0000000000000000E+020
 20
-1.0000000000000000E+020
 30
-1.0000000000000000E+020
  9
$PLIMMIN
 10
0.0
 20
0.0
  9
$PLIMMAX
 10
12.0
 20
9.0
  9
$UNITMODE
 70
     0
  9
$VISRETAIN
 70
     0
  9
$PLINEGEN
 70
     1
  9
$PSLTSCALE
 70
     0
  0
ENDSEC
  0
SECTION
  2
TABLES
  0
TABLE
  2
VPORT
 70
     1
  0
VPORT
  2
*ACTIVE
 70
     0
 10
0.0
 20
0.0
 11
1.0
 21
1.0
 12
100.0010685634346
 22
136.19476381362739
 13
0.0
 23
0.0
 14
1.0
 24
1.0
 15
0.0
 25
0.0
 16
0.0
 26
0.0
 36
1.0
 17
0.0
 27
0.0
 37
0.0
 40
269.706955348576
 41
2.172503242542152
 42
50.0
 43
0.0
 44
0.0
 50
0.0
 51
0.0
 71
     0
 72
  2000
 73
     1
 74
     1
 75
     0
 76
     0
 77
     0
 78
     0
  0
ENDTAB
  0
TABLE
  2
LTYPE
 70
    12
  0
LTYPE
  2
CONTINUOUS
 70
     0
  3
Solid line
 72
    65
 73
     0
 40
0.0
  0
LTYPE
  2
PHANTOM2
 70
     0
  3
___ _ _ ___ _ _ ___ _ _ ___ _ _
 72
    65
 73
     6
 40
1.25
 49
0.625
 49
-0.125
 49
0.125
 49
-0.125
 49
0.125
 49
-0.125
  0
ENDTAB
  0
TABLE
  2
LAYER
 70
     6
  0
LAYER
  2
0
 70
     0
 62
     7
  6
CONTINUOUS
  0
LAYER
  2
DATA
 70
     0
 62
     7
  6
CONTINUOUS
  0
LAYER
  2
HIBINO-BASE
 70
     0
 62
     7
  6
CONTINUOUS
  0
LAYER
  2
SPEC
 70
     0
 62
     7
  6
CONTINUOUS
  0
LAYER
  2
DIMNSIONS
 70
     0
 62
     7
  6
CONTINUOUS
  0
ENDTAB
  0
TABLE
  2
STYLE
 70
     3
  0
STYLE
  2
STANDARD
 70
     0
 40
0.0
 41
1.0
 50
0.0
 71
     0
 42
0.0
  3
txt
  4
BIGFONT.SHX
  0
ENDTAB
  0
TABLE
  2
VIEW
 70
     0
  0
ENDTAB
  0
TABLE
  2
UCS
 70
     0
  0
ENDTAB
  0
TABLE
  2
APPID
 70
     4
  0
APPID
  2
ACAD
 70
     0
  0
APPID
  2
ACADANNOTATIVE
 70
     0
  0
APPID
  2
ACAD_NAV_VCDISPLAY
 70
     0
  0
APPID
  2
ACAD_MLEADERVER
 70
     0
  0
ENDTAB
  0
TABLE
  2
DIMSTYLE
 70
     2
  0
DIMSTYLE
  2
STANDARD
 70
     0
  3

  4

  5

  6

  7

 40
1.0
 41
0.18
 42
0.0625
 43
0.38
 44
0.18
 45
0.0
 46
0.0
 47
0.0
 48
0.0
140
0.18
141
0.09
142
0.0
143
25.399999999999999
144
1.0
145
0.0
146
1.0
147
0.09
 71
     0
 72
     0
 73
     1
 74
     1
 75
     0
 76
     0
 77
     0
 78
     0
170
     0
171
     2
172
     0
173
     0
174
     0
175
     0
176
     0
177
     0
178
     0
  0
ENDTAB
  0
ENDSEC
  0
SECTION
  2
BLOCKS
  0
BLOCK
  8
0
  2
$MODEL_SPACE
 70
     0
 10
0.0
 20
0.0
 30
0.0
  3
$MODEL_SPACE
  1

  0
ENDBLK
  5
413
  8
0
  0
BLOCK
 67
     1
  8
0
  2
$PAPER_SPACE
 70
     0
 10
0.0
 20
0.0
 30
0.0
  3
$PAPER_SPACE
  1

  0
ENDBLK
  5
40F
 67
     1
  8
0
  0
ENDSEC
  0
SECTION
  2
ENTITIES
  0
LINE
  5
2D
  8
HIBINO-BASE
  6
CONTINUOUS
 62
     7
 10
10.0
 20
270.0
 30
0.0
 11
190.0
 21
270.0
 31
0.0
  0
LINE
  5
2E
  8
HIBINO-BASE
  6
CONTINUOUS
 62
     7
 10
190.0
 20
10.0
 30
0.0
 11
10.0
 21
10.0
 31
0.0
  0
LINE
  5
2F
  8
HIBINO-BASE
  6
CONTINUOUS
 62
     7
 10
10.0
 20
10.0
 30
0.0
 11
10.0
 21
270.0
 31
0.0
  0
LINE
  5
30
  8
HIBINO-BASE
  6
CONTINUOUS
 62
     7
 10
190.0
 20
270.0
 30
0.0
 11
190.0
 21
10.0
 31
0.0
  0
LINE
  5
31
  8
HIBINO-BASE
  6
CONTINUOUS
 62
     7
 10
100.0
 20
32.500000000000007
 30
0.0
 11
190.0
 21
32.500000000000007
 31
0.0
  0
LINE
  5
32
  8
HIBINO-BASE
  6
CONTINUOUS
 62
     7
 10
100.0
 20
10.0
 30
0.0
 11
100.0
 21
32.500000000000007
 31
0.0
  0
TEXT
  5
33
  8
HIBINO-BASE
 62
     7
 10
100.90000000000001
 20
29.991306666666681
 30
0.0
 40
1.6288411458333329
  1
NOTE
 41
0.7
 11
100.90000000000001
 21
31.620147812500011
 31
0.0
 73
     3
  0
LINE
  5
34
  8
HIBINO-BASE
  6
CONTINUOUS
 62
     7
 10
135.0
 20
10.0
 30
0.0
 11
135.0
 21
32.500000000000007
 31
0.0
  0
TEXT
  5
35
  8
HIBINO-BASE
 62
     7
 10
135.89999999999989
 20
29.991306666666681
 30
0.0
 40
1.6288411458333329
  1
TITLE
 41
0.7
 11
135.89999999999989
 21
31.620147812500011
 31
0.0
 73
     3
  0
LINE
  5
36
  8
HIBINO-BASE
  6
CONTINUOUS
 62
     7
 10
100.0
 20
20.000000000000011
 30
0.0
 11
190.0
 21
20.000000000000011
 31
0.0
  0
TEXT
  5
37
  8
HIBINO-BASE
 62
     7
 10
148.39999999999989
 20
17.54762666666667
 30
0.0
 40
1.6288411458333329
  1
DRAWN
 41
0.7
 11
148.39999999999989
 21
19.176467812500011
 31
0.0
 73
     3
  0
TEXT
  5
38
  8
HIBINO-BASE
 62
     7
 10
123.39999999999991
 20
17.54762666666667
 30
0.0
 40
1.6288411458333329
  1
DATE
 41
0.7
 11
123.39999999999991
 21
19.176467812500011
 31
0.0
 73
     3
  0
TEXT
  5
39
  8
HIBINO-BASE
 62
     7
 10
113.40000000000001
 20
17.54762666666667
 30
0.0
 40
1.6288411458333329
  1
SCALE
 41
0.7
 11
113.40000000000001
 21
19.176467812500011
 31
0.0
 73
     3
  0
TEXT
  5
3A
  8
HIBINO-BASE
 62
     7
 10
135.89999999999989
 20
17.54762666666667
 30
0.0
 40
1.6288411458333329
  1
DESIGN
 41
0.7
 11
135.89999999999989
 21
19.176467812500011
 31
0.0
 73
     3
  0
TEXT
  5
3B
  8
HIBINO-BASE
 62
     7
 10
173.39999999999989
 20
17.54762666666667
 30
0.0
 40
1.6288411458333329
  1
DRAWING NO.
 41
0.7
 11
173.39999999999989
 21
19.176467812500011
 31
0.0
 73
     3
  0
TEXT
  5
3C
  8
HIBINO-BASE
 62
     7
 10
160.89999999999989
 20
17.54762666666667
 30
0.0
 40
1.6288411458333329
  1
CHECK
 41
0.7
 11
160.89999999999989
 21
19.176467812500011
 31
0.0
 73
     3
  0
LINE
  5
3D
  8
HIBINO-BASE
  6
CONTINUOUS
 62
     7
 10
114.375
 20
11.25
 30
0.0
 11
118.125
 21
15.000000000000011
 31
0.0
  0
TEXT
  5
3E
  8
HIBINO-BASE
 62
     7
 10
113.75
 20
13.891056666666669
 30
0.0
 40
1.6288411458333329
  1
1
 41
0.7
 11
113.75
 21
15.5198978125
 31
0.0
 73
     3
  0
LINE
  5
3F
  8
HIBINO-BASE
  6
CONTINUOUS
 62
     7
 10
112.5
 20
10.0
 30
0.0
 11
112.5
 21
20.000000000000011
 31
0.0
  0
LINE
  5
40
  8
HIBINO-BASE
  6
CONTINUOUS
 62
     7
 10
122.5
 20
10.0
 30
0.0
 11
122.5
 21
20.000000000000011
 31
0.0
  0
LINE
  5
41
  8
HIBINO-BASE
  6
CONTINUOUS
 62
     7
 10
147.49999999999989
 20
20.000000000000011
 30
0.0
 11
147.49999999999989
 21
10.0
 31
0.0
  0
LINE
  5
42
  8
HIBINO-BASE
  6
CONTINUOUS
 62
     7
 10
172.5
 20
20.000000000000011
 30
0.0
 11
172.5
 21
10.0
 31
0.0
  0
LINE
  5
43
  8
HIBINO-BASE
  6
CONTINUOUS
 62
     7
 10
159.99999999999989
 20
10.0
 30
0.0
 11
159.99999999999989
 21
20.000000000000011
 31
0.0
  0
TEXT
  5
44
  8
HIBINO-BASE
 62
     7
 10
123.35654
 20
12.86364666666667
 30
0.0
 40
1.6288411458333329
  1
'12.09.
 41
0.7
 11
123.35654
 21
14.4924878125
 31
0.0
 73
     3
  0
TEXT
  5
45
  8
HIBINO-BASE
 62
     7
 10
117.5
 20
12.016056666666669
 30
0.0
 40
1.6288411458333329
  1
1
 41
0.7
 11
117.5
 21
13.6448978125
 31
0.0
 73
     3
  0
TEXT
  5
46
  8
HIBINO-BASE
 62
     7
 10
149.00581001103461
 20
12.86364666666667
 30
0.0
 40
1.6288411458333329
  1
Ootake
 41
0.7
 11
149.00581001103461
 21
14.4924878125
 31
0.0
 73
     3
  0
TEXT
  5
47
  8
HIBINO-BASE
 62
     7
 10
103.8833333333333
 20
11.97600000000001
 30
0.0
 40
3.2576822916666659
  1
A4
 41
0.7
 11
103.8833333333333
 21
15.23368229166668
 31
0.0
 73
     3
  0
TEXT
  5
48
  8
HIBINO-BASE
 62
     7
 10
100.9583333333333
 20
17.380545000000009
 30
0.0
 40
1.6288411458333329
  1
PAPER SIZE
 41
0.7
 11
100.9583333333333
 21
19.009386145833339
 31
0.0
 73
     3
  0
TEXT
  5
49
  8
HIBINO-BASE
 62
     7
 10
12.75963525689018
 20
3.5747597658237509
 30
0.0
 40
3.5291558159722221
  1
Hibino-Intersound Corporation
 41
0.7
 11
12.75963525689018
 21
7.1039155817959729
 31
0.0
 73
     3
  0
TEXT
  5
4A
  8
HIBINO-BASE
 62
     7
 10
120.18060968021391
 20
3.9258480191131699
 30
0.0
 40
3.5291558159722221
  1
ヒビノインターサウンド株式会社
 41
0.7
 11
120.18060968021391
 21
7.4550038350853924
 31
0.0
 73
     3
  0
LINE
  5
4B
  8
SPEC
  6
CONTINUOUS
 62
     7
 10
17.5
 20
260.0
 30
0.0
 11
165.0
 21
260.0
 31
0.0
  0
LINE
  5
4C
  8
SPEC
  6
CONTINUOUS
 62
     7
 10
17.5
 20
256.25
 30
0.0
 11
165.0
 21
256.25
 31
0.0
  0
LINE
  5
4D
  8
SPEC
  6
CONTINUOUS
 62
     7
 10
17.5
 20
248.75
 30
0.0
 11
165.0
 21
248.75
 31
0.0
  0
LINE
  5
4E
  8
SPEC
  6
CONTINUOUS
 62
     7
 10
17.5
 20
252.5
 30
0.0
 11
165.0
 21
252.5
 31
0.0
  0
LINE
  5
4F
  8
SPEC
  6
CONTINUOUS
 62
     7
 10
17.5
 20
260.0
 30
0.0
 11
17.5
 21
233.75
 31
0.0
  0
TEXT
  5
50
  8
SPEC
 62
     7
 10
18.75
 20
261.39326999999997
 30
0.0
 40
2.4432617187500001
  1
仕様
 41
0.7
 11
18.75
 21
263.83653171875
 31
0.0
 73
     3
  0
LINE
  5
51
  8
SPEC
  6
CONTINUOUS
 62
     7
 10
50.0
 20
260.0
 30
0.0
 11
50.0
 21
233.75
 31
0.0
  0
LINE
  5
52
  8
SPEC
  6
CONTINUOUS
 62
     7
 10
165.0
 20
260.0
 30
0.0
 11
165.0
 21
233.75
 31
0.0
  0
LINE
  5
53
  8
SPEC
  6
CONTINUOUS
 62
     7
 10
17.5
 20
245.0
 30
0.0
 11
165.0
 21
245.0
 31
0.0
  0
LINE
  5
54
  8
SPEC
  6
CONTINUOUS
 62
     7
 10
17.5
 20
241.25
 30
0.0
 11
165.0
 21
241.25
 31
0.0
  0
LINE
  5
55
  8
SPEC
  6
CONTINUOUS
 62
     7
 10
17.5
 20
237.5
 30
0.0
 11
165.0
 21
237.5
 31
0.0
  0
LINE
  5
56
  8
SPEC
  6
CONTINUOUS
 62
     7
 10
17.5
 20
233.75
 30
0.0
 11
165.0
 21
233.75
 31
0.0
  0
TEXT
  5
57
  8
SPEC
 62
     7
 10
50.861272094539139
 20
234.75807364352619
 30
0.0
 40
1.900314670138888
  1
約40g
 41
0.7
 11
50.861272094539139
 21
236.65838831366511
 31
0.0
 73
     3
  0
TEXT
  5
58
  8
SPEC
 62
     7
 10
18.329439914350761
 20
234.79070598753549
 30
0.0
 40
1.900314670138888
  1
質量
 41
0.7
 11
18.329439914350761
 21
236.69102065767439
 31
0.0
 73
     3
  0
TEXT
  5
59
  8
SPEC
 62
     7
 10
18.291407255090402
 20
238.48225322807281
 30
0.0
 40
1.900314670138888
  1
寸法
 41
0.7
 11
18.291407255090402
 21
240.3825678982117
 31
0.0
 73
     3
  0
TEXT
  5
5A
  8
SPEC
 62
     7
 10
50.902909486433728
 20
238.43445182784609
 30
0.0
 40
1.900314670138888
  1
32(W)\U+00D750(H)\U+00D717.5(D)mm(突起部含まず）
 41
0.7
 11
50.902909486433728
 21
240.33476649798499
 31
0.0
 73
     3
  0
TEXT
  5
5B
  8
SPEC
 62
     7
 10
18.35854733318029
 20
242.18930768764281
 30
0.0
 40
1.900314670138888
  1
バッテリー
 41
0.7
 11
18.35854733318029
 21
244.08962235778171
 31
0.0
 73
     3
  0
TEXT
  5
5C
  8
SPEC
 62
     7
 10
50.795907945013241
 20
242.10792448865629
 30
0.0
 40
1.900314670138888
  1
1450mAh
 41
0.7
 11
50.795907945013241
 21
244.00823915879519
 31
0.0
 73
     3
  0
TEXT
  5
5D
  8
SPEC
 62
     7
 10
18.33532618257961
 20
245.96264228507559
 30
0.0
 40
1.900314670138888
  1
定格電圧
 41
0.7
 11
18.33532618257961
 21
247.86295695521451
 31
0.0
 73
     3
  0
TEXT
  5
5E
  8
SPEC
 62
     7
 10
50.899449248341561
 20
246.0028659195402
 30
0.0
 40
1.900314670138888
  1
3.7V
 41
0.7
 11
50.899449248341561
 21
247.9031805896791
 31
0.0
 73
     3
  0
TEXT
  5
5F
  8
SPEC
 62
     7
 10
18.312048308562879
 20
249.64280866302539
 30
0.0
 40
1.900314670138888
  1
充電電流
 41
0.7
 11
18.312048308562879
 21
251.54312333316429
 31
0.0
 73
     3
  0
TEXT
  5
60
  8
SPEC
 62
     7
 10
50.855256461080963
 20
249.63066935866971
 30
0.0
 40
1.900314670138888
  1
750mAh
 41
0.7
 11
50.855256461080963
 21
251.5309840288086
 31
0.0
 73
     3
  0
TEXT
  5
61
  8
SPEC
 62
     7
 10
18.312048308562879
 20
253.462770107415
 30
0.0
 40
1.900314670138888
  1
充電電圧
 41
0.7
 11
18.312048308562879
 21
255.36308477755389
 31
0.0
 73
     3
  0
TEXT
  5
62
  8
SPEC
 62
     7
 10
50.955567872820083
 20
253.3653574994234
 30
0.0
 40
1.900314670138888
  1
4.2V\U+00B10.05V
 41
0.7
 11
50.955567872820083
 21
255.26567216956229
 31
0.0
 73
     3
  0
TEXT
  5
63
  8
SPEC
 62
     7
 10
18.312048308562879
 20
257.20522447759282
 30
0.0
 40
1.900314670138888
  1
充電温度
 41
0.7
 11
18.312048308562879
 21
259.10553914773169
 31
0.0
 73
     3
  0
TEXT
  5
64
  8
SPEC
 62
     7
 10
50.940312066735757
 20
257.13066935866982
 30
0.0
 40
1.900314670138888
  1
0℃～45℃(推奨）
 41
0.7
 11
50.940312066735757
 21
259.03098402880869
 31
0.0
 73
     3
  0
TEXT
  5
65
  8
DIMNSIONS
 62
     7
 10
79.999999999999986
 20
22.269490000000012
 30
0.0
 40
2.4432617187500001
  1
(単位：mm)
 41
0.7
 11
79.999999999999986
 21
24.71275171875001
 31
0.0
 73
     3
  0
LINE
  5
66
  8
DIMNSIONS
  6
CONTINUOUS
 62
     7
 10
50.000000000337963
 20
101.5147304860533
 30
0.0
 11
50.000000000337963
 21
85.5
 31
0.0
  0
LINE
  5
67
  8
DIMNSIONS
  6
CONTINUOUS
 62
     7
 10
82.054387097938061
 20
101.5147304860533
 30
0.0
 11
82.054387097938061
 21
85.5
 31
0.0
  0
LINE
  5
68
  8
DIMNSIONS
  6
CONTINUOUS
 62
     7
 10
50.000000000337963
 20
87.5
 30
0.0
 11
82.054387097938061
 21
87.5
 31
0.0
  0
LINE
  5
69
  8
DIMNSIONS
  6
CONTINUOUS
 62
     7
 10
50.000000000337963
 20
87.5
 30
0.0
 11
52.500622558931731
 21
88.170039795150245
 31
0.0
  0
LINE
  5
6A
  8
DIMNSIONS
  6
CONTINUOUS
 62
     7
 10
50.000000000337963
 20
87.5
 30
0.0
 11
52.500622558931731
 21
86.829960204849741
 31
0.0
  0
LINE
  5
6B
  8
DIMNSIONS
  6
CONTINUOUS
 62
     7
 10
82.054387097938061
 20
87.5
 30
0.0
 11
79.5537645393443
 21
86.829960204849741
 31
0.0
  0
LINE
  5
6C
  8
DIMNSIONS
  6
CONTINUOUS
 62
     7
 10
82.054387097938061
 20
87.5
 30
0.0
 11
79.5537645393443
 21
88.170039795150245
 31
0.0
  0
TEXT
  5
6D
  8
DIMNSIONS
 62
     7
 10
64.263304660249133
 20
88.493888888888875
 30
0.0
 40
2.7147352430555549
  1
32
 41
0.7
 11
64.263304660249133
 21
91.208624131944447
 31
0.0
 73
     3
  0
LINE
  5
6E
  8
DIMNSIONS
  6
CONTINUOUS
 62
     7
 10
49.530000000000001
 20
100.0003471305815
 30
0.0
 11
35.5
 21
100.0003471305815
 31
0.0
  0
LINE
  5
6F
  8
DIMNSIONS
  6
CONTINUOUS
 62
     7
 10
49.530000000000001
 20
149.99679112925341
 30
0.0
 11
35.5
 21
149.99679112925341
 31
0.0
  0
LINE
  5
70
  8
DIMNSIONS
  6
CONTINUOUS
 62
     7
 10
37.5
 20
100.0003471305815
 30
0.0
 11
37.5
 21
149.99679112925341
 31
0.0
  0
LINE
  5
71
  8
DIMNSIONS
  6
CONTINUOUS
 62
     7
 10
37.5
 20
100.0003471305815
 30
0.0
 11
36.829960204849762
 21
102.50096968917519
 31
0.0
  0
LINE
  5
72
  8
DIMNSIONS
  6
CONTINUOUS
 62
     7
 10
37.5
 20
100.0003471305815
 30
0.0
 11
38.170039795150252
 21
102.50096968917519
 31
0.0
  0
LINE
  5
73
  8
DIMNSIONS
  6
CONTINUOUS
 62
     7
 10
37.5
 20
149.99679112925341
 30
0.0
 11
38.170039795150252
 21
147.49616857065959
 31
0.0
  0
LINE
  5
74
  8
DIMNSIONS
  6
CONTINUOUS
 62
     7
 10
37.5
 20
149.99679112925341
 30
0.0
 11
36.829960204849762
 21
147.49616857065959
 31
0.0
  0
TEXT
  5
75
  8
DIMNSIONS
 62
     7
 10
36.506111111111132
 20
123.2346802410285
 30
0.0
 40
2.7147352430555549
  1
50
 50
90.0
 41
0.7
 11
33.791375868055567
 21
123.2346802410285
 31
0.0
 73
     3
  0
LINE
  5
76
  8
DIMNSIONS
  6
CONTINUOUS
 62
     7
 10
56.509999999999991
 20
56.253833543005527
 30
0.0
 11
35.5
 21
56.253833543005527
 31
0.0
  0
LINE
  5
77
  8
DIMNSIONS
  6
CONTINUOUS
 62
     7
 10
56.509999999999991
 20
73.78538258540037
 30
0.0
 11
35.5
 21
73.78538258540037
 31
0.0
  0
LINE
  5
78
  8
DIMNSIONS
  6
CONTINUOUS
 62
     7
 10
37.5
 20
56.253833543005527
 30
0.0
 11
37.5
 21
73.78538258540037
 31
0.0
  0
LINE
  5
79
  8
DIMNSIONS
  6
CONTINUOUS
 62
     7
 10
37.5
 20
56.253833543005527
 30
0.0
 11
36.829960204849762
 21
58.754456101599281
 31
0.0
  0
LINE
  5
7A
  8
DIMNSIONS
  6
CONTINUOUS
 62
     7
 10
37.5
 20
56.253833543005527
 30
0.0
 11
38.170039795150252
 21
58.754456101599281
 31
0.0
  0
LINE
  5
7B
  8
DIMNSIONS
  6
CONTINUOUS
 62
     7
 10
37.5
 20
73.78538258540037
 30
0.0
 11
38.170039795150252
 21
71.284760026806623
 31
0.0
  0
LINE
  5
7C
  8
DIMNSIONS
  6
CONTINUOUS
 62
     7
 10
37.5
 20
73.78538258540037
 30
0.0
 11
36.829960204849762
 21
71.284760026806623
 31
0.0
  0
TEXT
  5
7D
  8
DIMNSIONS
 62
     7
 10
36.506111111111132
 20
61.491830286425177
 30
0.0
 40
2.7147352430555549
  1
17.5
 50
90.0
 41
0.7
 11
33.791375868055567
 21
61.491830286425177
 31
0.0
 73
     3
  0
TEXT
  5
7E
  8
DATA
 62
     7
 10
150.0
 20
21.064700407582439
 30
0.0
 40
2.4432617187500001
  1
SB900
 41
0.7
 11
150.0
 21
23.507962126332451
 31
0.0
 73
     3
  0
TEXT
  5
7F
  8
DATA
 62
     7
 10
150.0
 20
28.572949691630619
 30
0.0
 40
2.4432617187500001
  1
SHURE
 41
0.7
 11
150.0
 21
31.01621141038062
 31
0.0
 73
     3
  0
TEXT
  5
80
  8
DATA
 62
     7
 10
20.0
 20
14.238
 30
0.0
 40
1.6288411458333329
  1
仕様および外観は予告なく変更されることがありますので、ご了承ください。
 41
0.7
 11
20.0
 21
15.86684114583333
 31
0.0
 73
     3
  0
LINE
  5
81
  8
DATA
  6
CONTINUOUS
 62
     7
 10
50.000000000337963
 20
146.9860709244534
 30
0.0
 11
50.000000000337963
 21
103.5147304860533
 31
0.0
  0
LINE
  5
82
  8
DATA
  6
CONTINUOUS
 62
     7
 10
64.403708949265791
 20
101.1720545591091
 30
0.0
 11
64.404045569074327
 21
101.3175636350894
 31
0.0
  0
LINE
  5
83
  8
DATA
  6
CONTINUOUS
 62
     7
 10
67.650341529201654
 20
101.3175636350894
 30
0.0
 11
67.65067814901019
 21
101.1720545591091
 31
0.0
  0
LINE
  5
84
  8
DATA
  6
CONTINUOUS
 62
     7
 10
50.438738103737712
 20
145.05759999965341
 30
0.0
 11
50.475310157236088
 21
145.05792770103221
 31
0.0
  0
LINE
  5
85
  8
DATA
  6
CONTINUOUS
 62
     7
 10
63.678462234285661
 20
102.68596075620709
 30
0.0
 11
63.677943020609817
 21
102.6893239966878
 31
0.0
  0
LINE
  5
86
  8
DATA
  6
CONTINUOUS
 62
     7
 10
67.051158800631441
 20
111.85852973554201
 30
0.0
 11
67.043175595326673
 21
111.85865380203241
 31
0.0
  0
LINE
  5
87
  8
DATA
  6
CONTINUOUS
 62
     7
 10
61.289603024337993
 20
150.75278810525339
 30
0.0
 11
56.249587501137931
 21
150.75278810525339
 31
0.0
  0
LINE
  5
88
  8
DATA
  6
CONTINUOUS
 62
     7
 10
75.804799597138015
 20
151.00480040285339
 30
0.0
 11
70.764784073938017
 21
151.00480040285339
 31
0.0
  0
LINE
  5
89
  8
DATA
  6
CONTINUOUS
 62
     7
 10
70.512797379538014
 20
150.75278810525339
 30
0.0
 11
76.056786291538103
 21
150.75278810525339
 31
0.0
  0
LINE
  5
8A
  8
DATA
  6
CONTINUOUS
 62
     7
 10
61.481524611537992
 20
150.33750420125341
 30
0.0
 11
56.057665913938052
 21
150.33750420125341
 31
0.0
  0
LINE
  5
8B
  8
DATA
  6
CONTINUOUS
 62
     7
 10
63.186108857938017
 20
146.9860709244534
 30
0.0
 11
63.186108857938017
 21
103.5147304860533
 31
0.0
  0
LINE
  5
8C
  8
DATA
  6
CONTINUOUS
 62
     7
 10
63.186108857938017
 20
146.9860709244534
 30
0.0
 11
50.000000000337963
 21
146.9860709244534
 31
0.0
  0
LINE
  5
8D
  8
DATA
  6
CONTINUOUS
 62
     7
 10
50.000000000337963
 20
103.5147304860533
 30
0.0
 11
63.186108857938017
 21
103.5147304860533
 31
0.0
  0
LINE
  5
8E
  8
DATA
  6
CONTINUOUS
 62
     7
 10
62.984509261137973
 20
143.95490807645339
 30
0.0
 11
62.984509261137973
 21
104.7243280668534
 31
0.0
  0
LINE
  5
8F
  8
DATA
  6
CONTINUOUS
 62
     7
 10
61.620140336338054
 20
145.5280454940534
 30
0.0
 11
62.8368812099379
 21
144.31127901725341
 31
0.0
  0
LINE
  5
90
  8
DATA
  6
CONTINUOUS
 62
     7
 10
68.868278240337972
 20
146.9860709244534
 30
0.0
 11
68.868278240337972
 21
103.5147304860533
 31
0.0
  0
LINE
  5
91
  8
DATA
  6
CONTINUOUS
 62
     7
 10
82.054387097938061
 20
146.9860709244534
 30
0.0
 11
68.868278240337972
 21
146.9860709244534
 31
0.0
  0
LINE
  5
92
  8
DATA
  6
CONTINUOUS
 62
     7
 10
68.868278240337972
 20
103.5147304860533
 30
0.0
 11
82.054387097938061
 21
103.5147304860533
 31
0.0
  0
LINE
  5
93
  8
DATA
  6
CONTINUOUS
 62
     7
 10
63.313049523537963
 20
102.5584509660534
 30
0.0
 11
50.155180995537982
 21
102.5584509660534
 31
0.0
  0
LINE
  5
94
  8
DATA
  6
CONTINUOUS
 62
     7
 10
81.899206102737935
 20
102.5584509660534
 30
0.0
 11
68.741337574738026
 21
102.5584509660534
 31
0.0
  0
LINE
  5
95
  8
DATA
  6
CONTINUOUS
 62
     7
 10
68.741337574738026
 20
147.94235044445341
 30
0.0
 11
81.899206102737935
 21
147.94235044445341
 31
0.0
  0
LINE
  5
96
  8
DATA
  6
CONTINUOUS
 62
     7
 10
50.155180995537982
 20
147.94235044445341
 30
0.0
 11
63.313049523537963
 21
147.94235044445341
 31
0.0
  0
LINE
  5
97
  8
DATA
  6
CONTINUOUS
 62
     7
 10
68.411491549137935
 20
147.53531077085341
 30
0.0
 11
68.411491549137935
 21
102.9654906396534
 31
0.0
  0
LINE
  5
98
  8
DATA
  6
CONTINUOUS
 62
     7
 10
63.642895549138053
 20
147.53531077085341
 30
0.0
 11
63.642895549138053
 21
102.9654906396534
 31
0.0
  0
LINE
  5
99
  8
DATA
  6
CONTINUOUS
 62
     7
 10
68.50235730593792
 20
149.47987381085341
 30
0.0
 11
68.741337574738026
 21
147.94235044445341
 31
0.0
  0
LINE
  5
9A
  8
DATA
  6
CONTINUOUS
 62
     7
 10
63.313049523537963
 20
147.94235044445341
 30
0.0
 11
63.55202979233794
 21
149.47987381085341
 31
0.0
  0
LINE
  5
9B
  8
DATA
  6
CONTINUOUS
 62
     7
 10
63.63037558433799
 20
100.5169286076534
 30
0.0
 11
63.313049523537963
 21
102.5584509660534
 31
0.0
  0
LINE
  5
9C
  8
DATA
  6
CONTINUOUS
 62
     7
 10
68.741337574738026
 20
102.5584509660534
 30
0.0
 11
68.424011513937984
 21
100.5169286076534
 31
0.0
  0
LINE
  5
9D
  8
DATA
  6
CONTINUOUS
 62
     7
 10
68.375928704337952
 20
147.8148465084534
 30
0.0
 11
68.13694843553796
 21
149.35236987485339
 31
0.0
  0
LINE
  5
9E
  8
DATA
  6
CONTINUOUS
 62
     7
 10
63.917438662737901
 20
149.35236987485339
 30
0.0
 11
63.678458393938037
 21
147.8148465084534
 31
0.0
  0
LINE
  5
9F
  8
DATA
  6
CONTINUOUS
 62
     7
 10
63.678458393938037
 20
102.6859549020534
 30
0.0
 11
63.995784454737958
 21
100.64443254365339
 31
0.0
  0
LINE
  5
A0
  8
DATA
  6
CONTINUOUS
 62
     7
 10
68.058602643538023
 20
100.64443254365339
 30
0.0
 11
68.375928704337952
 21
102.6859549020534
 31
0.0
  0
LINE
  5
A1
  8
DATA
  6
CONTINUOUS
 62
     7
 10
81.386706848338036
 20
149.47987381085341
 30
0.0
 11
68.50235730593792
 21
149.47987381085341
 31
0.0
  0
LINE
  5
A2
  8
DATA
  6
CONTINUOUS
 62
     7
 10
63.55202979233794
 20
149.47987381085341
 30
0.0
 11
50.667680249938023
 21
149.47987381085341
 31
0.0
  0
LINE
  5
A3
  8
DATA
  6
CONTINUOUS
 62
     7
 10
68.424011513937984
 20
100.5169286076534
 30
0.0
 11
81.218698649938034
 21
100.5169286076534
 31
0.0
  0
LINE
  5
A4
  8
DATA
  6
CONTINUOUS
 62
     7
 10
50.835688448338018
 20
100.5169286076534
 30
0.0
 11
63.63037558433799
 21
100.5169286076534
 31
0.0
  0
LINE
  5
A5
  8
DATA
  6
CONTINUOUS
 62
     7
 10
67.742812774737985
 20
149.59360322525339
 30
0.0
 11
67.742812774737985
 21
100.4031991932534
 31
0.0
  0
LINE
  5
A6
  8
DATA
  6
CONTINUOUS
 62
     7
 10
64.311574323537997
 20
149.59360322525339
 30
0.0
 11
64.311574323537997
 21
100.4031991932534
 31
0.0
  0
LINE
  5
A7
  8
DATA
  6
CONTINUOUS
 62
     7
 10
64.404053081938031
 20
138.9087989916533
 30
0.0
 11
64.404053081938031
 21
148.67923614365341
 31
0.0
  0
LINE
  5
A8
  8
DATA
  6
CONTINUOUS
 62
     7
 10
64.404053081938031
 20
101.31756627485341
 30
0.0
 11
64.404053081938031
 21
111.0880034268534
 31
0.0
  0
LINE
  5
A9
  8
DATA
  6
CONTINUOUS
 62
     7
 10
67.650334016337951
 20
111.0880034268534
 30
0.0
 11
67.650334016337951
 21
101.31756627485341
 31
0.0
  0
LINE
  5
AA
  8
DATA
  6
CONTINUOUS
 62
     7
 10
67.650334016337951
 20
148.67923614365341
 30
0.0
 11
67.650334016337951
 21
138.9087989916533
 31
0.0
  0
LINE
  5
AB
  8
DATA
  6
CONTINUOUS
 62
     7
 10
67.286026083537962
 20
138.1800807132534
 30
0.0
 11
67.286026083537962
 21
111.8167217052534
 31
0.0
  0
LINE
  5
AC
  8
DATA
  6
CONTINUOUS
 62
     7
 10
65.019195565138006
 20
111.85868535005341
 30
0.0
 11
67.035191533137976
 21
111.85868535005341
 31
0.0
  0
LINE
  5
AD
  8
DATA
  6
CONTINUOUS
 62
     7
 10
67.035191533137976
 20
138.1381170684534
 30
0.0
 11
65.019195565138006
 21
138.1381170684534
 31
0.0
  0
LINE
  5
AE
  8
DATA
  6
CONTINUOUS
 62
     7
 10
65.019195565138006
 20
138.40479999965339
 30
0.0
 11
67.035191533137976
 21
138.40479999965339
 31
0.0
  0
LINE
  5
AF
  8
DATA
  6
CONTINUOUS
 62
     7
 10
65.019195565138006
 20
111.5920024188534
 30
0.0
 11
67.035191533137976
 21
111.5920024188534
 31
0.0
  0
LINE
  5
B0
  8
DATA
  6
CONTINUOUS
 62
     7
 10
67.650334016337951
 20
101.31756627485341
 30
0.0
 11
64.404053081938031
 21
101.31756627485341
 31
0.0
  0
LINE
  5
B1
  8
DATA
  6
CONTINUOUS
 62
     7
 10
64.403720240337933
 20
100.4031991932534
 30
0.0
 11
64.403720240337933
 21
101.1720632892534
 31
0.0
  0
LINE
  5
B2
  8
DATA
  6
CONTINUOUS
 62
     7
 10
67.650334016337951
 20
148.67923614365341
 30
0.0
 11
64.404053081938031
 21
148.67923614365341
 31
0.0
  0
LINE
  5
B3
  8
DATA
  6
CONTINUOUS
 62
     7
 10
67.650666857938035
 20
101.1720632892534
 30
0.0
 11
67.650666857938035
 21
100.4031991932534
 31
0.0
  0
LINE
  5
B4
  8
DATA
  6
CONTINUOUS
 62
     7
 10
64.158306291000002
 20
99.999999999653411
 30
0.0
 11
51.552885286738032
 21
99.999999999653411
 31
0.0
  0
LINE
  5
B5
  8
DATA
  6
CONTINUOUS
 62
     7
 10
64.15186156193792
 20
100.4031991932534
 30
0.0
 11
64.515196573138013
 21
100.4031991932534
 31
0.0
  0
LINE
  5
B6
  8
DATA
  6
CONTINUOUS
 62
     7
 10
51.384877088338023
 20
149.99680241885341
 30
0.0
 11
64.182306291000003
 21
149.99680241885341
 31
0.0
  0
LINE
  5
B7
  8
DATA
  6
CONTINUOUS
 62
     7
 10
64.515196573138013
 20
149.59360322525339
 30
0.0
 11
64.073515769937956
 21
149.59360322525339
 31
0.0
  0
LINE
  5
B8
  8
DATA
  6
CONTINUOUS
 62
     7
 10
80.501501811538006
 20
99.999999999653411
 30
0.0
 11
67.942389718737999
 21
99.999999999653411
 31
0.0
  0
LINE
  5
B9
  8
DATA
  6
CONTINUOUS
 62
     7
 10
67.539190525137968
 20
100.4031991932534
 30
0.0
 11
67.902525536337933
 21
100.4031991932534
 31
0.0
  0
LINE
  5
BA
  8
DATA
  6
CONTINUOUS
 62
     7
 10
67.86830629100001
 20
149.99680241885341
 30
0.0
 11
80.669510009938008
 21
149.99680241885341
 31
0.0
  0
LINE
  5
BB
  8
DATA
  6
CONTINUOUS
 62
     7
 10
67.980871328337983
 20
149.59360322525339
 30
0.0
 11
67.539190525137968
 21
149.59360322525339
 31
0.0
  0
LINE
  5
BC
  8
DATA
  6
CONTINUOUS
 62
     7
 10
67.539190525137968
 20
100.9611697308534
 30
0.0
 11
64.515196573138013
 21
100.9611697308534
 31
0.0
  0
LINE
  5
BD
  8
DATA
  6
CONTINUOUS
 62
     7
 10
64.515196573138013
 20
149.0356070844534
 30
0.0
 11
67.539190525137968
 21
149.0356070844534
 31
0.0
  0
LINE
  5
BE
  8
DATA
  6
CONTINUOUS
 62
     7
 10
64.515196573138013
 20
138.9087989916533
 30
0.0
 11
64.515196573138013
 21
149.6475747708534
 31
0.0
  0
LINE
  5
BF
  8
DATA
  6
CONTINUOUS
 62
     7
 10
67.539190525137968
 20
149.6475747708534
 30
0.0
 11
64.515196573138013
 21
149.6475747708534
 31
0.0
  0
LINE
  5
C0
  8
DATA
  6
CONTINUOUS
 62
     7
 10
67.539190525137968
 20
149.64761196667271
 30
0.0
 11
67.539190525137968
 21
138.9087989916533
 31
0.0
  0
LINE
  5
C1
  8
DATA
  6
CONTINUOUS
 62
     7
 10
67.539190525137968
 20
100.20159959645341
 30
0.0
 11
64.515196573138013
 21
100.20159959645341
 31
0.0
  0
LINE
  5
C2
  8
DATA
  6
CONTINUOUS
 62
     7
 10
67.539190525137968
 20
111.0880034268534
 30
0.0
 11
67.539190525137968
 21
100.20159959645341
 31
0.0
  0
LINE
  5
C3
  8
DATA
  6
CONTINUOUS
 62
     7
 10
64.515196573138013
 20
100.34922764765339
 30
0.0
 11
67.539190525137968
 21
100.34922764765339
 31
0.0
  0
LINE
  5
C4
  8
DATA
  6
CONTINUOUS
 62
     7
 10
64.515196573138013
 20
100.20159959645341
 30
0.0
 11
64.515196573138013
 21
111.0880034268534
 31
0.0
  0
LINE
  5
C5
  8
DATA
  6
CONTINUOUS
 62
     7
 10
64.181279638738019
 20
149.99680241885341
 30
0.0
 11
67.870444726738
 21
149.99680241885341
 31
0.0
  0
LINE
  5
C6
  8
DATA
  6
CONTINUOUS
 62
     7
 10
63.012109510737993
 20
151.37742937565341
 30
0.0
 11
61.482113485137987
 21
150.33425259485341
 31
0.0
  0
LINE
  5
C7
  8
DATA
  6
CONTINUOUS
 62
     7
 10
70.512797379538014
 20
150.3748080636534
 30
0.0
 11
69.04227758753801
 21
151.37742937565341
 31
0.0
  0
LINE
  5
C8
  8
DATA
  6
CONTINUOUS
 62
     7
 10
63.437993139537951
 20
151.50879939485341
 30
0.0
 11
68.61639395873803
 21
151.50879939485341
 31
0.0
  0
LINE
  5
C9
  8
DATA
  6
CONTINUOUS
 62
     7
 10
50.058119264338067
 20
139.76561007965341
 30
0.0
 11
50.058119264338067
 21
144.8055999996534
 31
0.0
  0
LINE
  5
CA
  8
DATA
  6
CONTINUOUS
 62
     7
 10
50.090993773138052
 20
145.0576122972534
 30
0.0
 11
50.438736435537969
 21
145.0576122972534
 31
0.0
  0
LINE
  5
CB
  8
DATA
  6
CONTINUOUS
 62
     7
 10
50.890632915537921
 20
144.8055999996534
 30
0.0
 11
50.890632915537921
 21
139.76561007965341
 31
0.0
  0
LINE
  5
CC
  8
DATA
  6
CONTINUOUS
 62
     7
 10
57.793306841938012
 20
103.7163300828534
 30
0.0
 11
61.976511277137973
 21
103.7163300828534
 31
0.0
  0
LINE
  5
CD
  8
DATA
  6
CONTINUOUS
 62
     7
 10
56.78530885793802
 20
104.7243280668534
 30
0.0
 11
56.78530885793802
 21
144.66767556125339
 31
0.0
  0
LINE
  5
CE
  8
DATA
  6
CONTINUOUS
 62
     7
 10
57.793306841938012
 20
145.6756735452534
 30
0.0
 11
61.263743792337984
 21
145.6756735452534
 31
0.0
  0
LINE
  5
CF
  8
DATA
  6
CONTINUOUS
 62
     7
 10
58.769582461138022
 20
99.999999999653411
 30
0.0
 11
58.769582461138022
 21
149.99680241885341
 31
0.0
  0
LINE
  5
D0
  8
DATA
  6
CONTINUOUS
 62
     7
 10
73.284804637138009
 20
99.999999999653411
 30
0.0
 11
73.284804637138009
 21
149.99680241885341
 31
0.0
  0
LINE
  5
D1
  8
DATA
  6
CONTINUOUS
 62
     7
 10
64.768361014738019
 20
138.1800807132534
 30
0.0
 11
64.768361014738019
 21
111.8167217052534
 31
0.0
  0
LINE
  5
D2
  8
DATA
  6
CONTINUOUS
 62
     7
 10
67.945306291000009
 20
99.999999999653411
 30
0.0
 11
64.160003379537955
 21
99.999999999653411
 31
0.0
  0
LINE
  5
D3
  8
DATA
  6
CONTINUOUS
 62
     7
 10
70.512797379538014
 20
150.75278810525339
 30
0.0
 11
70.512797379538014
 21
149.99680241885341
 31
0.0
  0
LINE
  5
D4
  8
DATA
  6
CONTINUOUS
 62
     7
 10
76.056786291538103
 20
149.99680241885341
 30
0.0
 11
76.056786291538103
 21
150.75278810525339
 31
0.0
  0
LINE
  5
D5
  8
DATA
  6
CONTINUOUS
 62
     7
 10
56.057665913938052
 20
150.33750420125341
 30
0.0
 11
55.997600806737957
 21
149.99680241885341
 31
0.0
  0
LINE
  5
D6
  8
DATA
  6
CONTINUOUS
 62
     7
 10
61.541589718737981
 20
149.99680241885341
 30
0.0
 11
61.481524611537992
 21
150.33750420125341
 31
0.0
  0
LINE
  5
D7
  8
DATA
  6
CONTINUOUS
 62
     7
 10
81.899206102737935
 20
147.94235044445341
 30
0.0
 11
81.386706848338036
 21
149.47987381085341
 31
0.0
  0
LINE
  5
D8
  8
DATA
  6
CONTINUOUS
 62
     7
 10
81.218698649938034
 20
100.5169286076534
 30
0.0
 11
81.899206102737935
 21
102.5584509660534
 31
0.0
  0
LINE
  5
D9
  8
DATA
  6
CONTINUOUS
 62
     7
 10
50.667680249938023
 20
149.47987381085341
 30
0.0
 11
50.155180995537982
 21
147.94235044445341
 31
0.0
  0
LINE
  5
DA
  8
DATA
  6
CONTINUOUS
 62
     7
 10
50.155180995537982
 20
102.5584509660534
 30
0.0
 11
50.835688448338018
 21
100.5169286076534
 31
0.0
  0
LINE
  5
DB
  8
DATA
  6
CONTINUOUS
 62
     7
 10
82.054387097938061
 20
103.5147304860533
 30
0.0
 11
82.054387097938061
 21
146.9860709244534
 31
0.0
  0
LINE
  5
DC
  8
DATA
  6
CONTINUOUS
 62
     7
 10
108.6969966673669
 20
146.9860709244046
 30
0.0
 11
108.6969966673669
 21
103.51473048600469
 31
0.0
  0
LINE
  5
DD
  8
DATA
  6
CONTINUOUS
 62
     7
 10
113.0536122978268
 20
149.99680241880461
 30
0.0
 11
112.9935215874268
 21
150.3375042012045
 31
0.0
  0
LINE
  5
DE
  8
DATA
  6
CONTINUOUS
 62
     7
 10
107.5696884930267
 20
150.3375042012045
 30
0.0
 11
107.5095977826267
 21
149.99680241880461
 31
0.0
  0
LINE
  5
DF
  8
DATA
  6
CONTINUOUS
 62
     7
 10
116.7035276802268
 20
100.5169286076047
 30
0.0
 11
117.3840351330268
 21
102.5584509660046
 31
0.0
  0
LINE
  5
E0
  8
DATA
  6
CONTINUOUS
 62
     7
 10
117.3840351330268
 20
147.94235044440461
 30
0.0
 11
116.8715102754267
 21
149.47987381080461
 31
0.0
  0
LINE
  5
E1
  8
DATA
  6
CONTINUOUS
 62
     7
 10
101.8889016834267
 20
151.50879939480461
 30
0.0
 11
102.25341444182681
 21
151.50879939480461
 31
0.0
  0
LINE
  5
E2
  8
DATA
  6
CONTINUOUS
 62
     7
 10
102.25341444182681
 20
151.50879939480461
 30
0.0
 11
102.2765597346267
 21
151.37742937560461
 31
0.0
  0
LINE
  5
E3
  8
DATA
  6
CONTINUOUS
 62
     7
 10
102.2765597346267
 20
151.37742937560461
 30
0.0
 11
102.4968496674267
 21
150.12817243800461
 31
0.0
  0
LINE
  5
E4
  8
DATA
  6
CONTINUOUS
 62
     7
 10
102.5200205634267
 20
149.99680241880461
 30
0.0
 11
102.4968496674267
 21
150.12817243800461
 31
0.0
  0
LINE
  5
E5
  8
DATA
  6
CONTINUOUS
 62
     7
 10
107.5696884930267
 20
150.3375042012045
 30
0.0
 11
112.9935215874268
 21
150.3375042012045
 31
0.0
  0
LINE
  5
E6
  8
DATA
  6
CONTINUOUS
 62
     7
 10
100.1551809954268
 20
147.94235044440461
 30
0.0
 11
117.3840351330268
 21
147.94235044440461
 31
0.0
  0
LINE
  5
E7
  8
DATA
  6
CONTINUOUS
 62
     7
 10
100.1551809954268
 20
102.5584509660046
 30
0.0
 11
100.8356884482268
 21
100.5169286076047
 31
0.0
  0
LINE
  5
E8
  8
DATA
  6
CONTINUOUS
 62
     7
 10
100.1551809954268
 20
147.94235044440461
 30
0.0
 11
100.6677058530268
 21
149.47987381080461
 31
0.0
  0
LINE
  5
E9
  8
DATA
  6
CONTINUOUS
 62
     7
 10
100.8356884482268
 20
100.5169286076047
 30
0.0
 11
116.7035276802268
 21
100.5169286076047
 31
0.0
  0
LINE
  5
EA
  8
DATA
  6
CONTINUOUS
 62
     7
 10
101.3849026914267
 20
149.99680241880461
 30
0.0
 11
116.1543134370269
 21
149.99680241880461
 31
0.0
  0
LINE
  5
EB
  8
DATA
  6
CONTINUOUS
 62
     7
 10
113.0536122978268
 20
150.75278810520459
 30
0.0
 11
112.8017024130268
 21
150.75278810520459
 31
0.0
  0
LINE
  5
EC
  8
DATA
  6
CONTINUOUS
 62
     7
 10
117.5392161282268
 20
146.9860709244046
 30
0.0
 11
100.00000000022681
 21
146.9860709244046
 31
0.0
  0
LINE
  5
ED
  8
DATA
  6
CONTINUOUS
 62
     7
 10
100.00000000022681
 20
103.51473048600469
 30
0.0
 11
117.5392161282268
 21
103.51473048600469
 31
0.0
  0
LINE
  5
EE
  8
DATA
  6
CONTINUOUS
 62
     7
 10
117.3840351330268
 20
102.5584509660046
 30
0.0
 11
100.1551809954268
 21
102.5584509660046
 31
0.0
  0
LINE
  5
EF
  8
DATA
  6
CONTINUOUS
 62
     7
 10
116.8715102754267
 20
149.47987381080461
 30
0.0
 11
100.6677058530268
 21
149.47987381080461
 31
0.0
  0
LINE
  5
F0
  8
DATA
  6
CONTINUOUS
 62
     7
 10
100.7552687970268
 20
149.74261384920459
 30
0.0
 11
101.1717048450268
 21
150.99187078680461
 31
0.0
  0
LINE
  5
F1
  8
DATA
  6
CONTINUOUS
 62
     7
 10
100.7552687970268
 20
149.74261384920459
 30
0.0
 11
100.6677058530268
 21
149.47987381080461
 31
0.0
  0
LINE
  5
F2
  8
DATA
  6
CONTINUOUS
 62
     7
 10
115.9863052386269
 20
99.999999999604654
 30
0.0
 11
101.5529108898268
 21
99.999999999604654
 31
0.0
  0
LINE
  5
F3
  8
DATA
  6
CONTINUOUS
 62
     7
 10
112.8016000002268
 20
151.00480040280459
 30
0.0
 11
107.7616100802267
 21
151.00480040280459
 31
0.0
  0
LINE
  5
F4
  8
DATA
  6
CONTINUOUS
 62
     7
 10
112.8016000002268
 20
150.75278810520459
 30
0.0
 11
107.5095977826267
 21
150.75278810520459
 31
0.0
  0
LINE
  5
F5
  8
DATA
  6
CONTINUOUS
 62
     7
 10
131.2500000000675
 20
146.98607092417771
 30
0.0
 11
131.2500000000675
 21
103.5147304857777
 31
0.0
  0
LINE
  5
F6
  8
DATA
  6
CONTINUOUS
 62
     7
 10
142.79158971846749
 20
150.37480806337771
 30
0.0
 11
142.79158971846749
 21
150.7527881049777
 31
0.0
  0
LINE
  5
F7
  8
DATA
  6
CONTINUOUS
 62
     7
 10
137.24760080646749
 20
150.7527881049777
 30
0.0
 11
137.24760080646749
 21
149.99680241857769
 31
0.0
  0
LINE
  5
F8
  8
DATA
  6
CONTINUOUS
 62
     7
 10
157.30678629126751
 20
149.99680241857769
 30
0.0
 11
157.2467211840675
 21
150.33750420097769
 31
0.0
  0
LINE
  5
F9
  8
DATA
  6
CONTINUOUS
 62
     7
 10
151.8228624864675
 20
150.33750420097769
 30
0.0
 11
151.82229921606751
 21
150.3342269913777
 31
0.0
  0
LINE
  5
FA
  8
DATA
  6
CONTINUOUS
 62
     7
 10
163.3043870976675
 20
103.5147304857777
 30
0.0
 11
163.3043870976675
 21
146.98607092417771
 31
0.0
  0
LINE
  5
FB
  8
DATA
  6
CONTINUOUS
 62
     7
 10
162.46869864966749
 20
100.51692860737769
 30
0.0
 11
163.14920610246739
 21
102.55845096577769
 31
0.0
  0
LINE
  5
FC
  8
DATA
  6
CONTINUOUS
 62
     7
 10
131.4051809952675
 20
102.55845096577769
 30
0.0
 11
132.08568844806749
 21
100.51692860737769
 31
0.0
  0
LINE
  5
FD
  8
DATA
  6
CONTINUOUS
 62
     7
 10
131.91768024966751
 20
149.47987381057769
 30
0.0
 11
131.4051809952675
 21
147.94235044417769
 31
0.0
  0
LINE
  5
FE
  8
DATA
  6
CONTINUOUS
 62
     7
 10
163.14920610246739
 20
147.94235044417769
 30
0.0
 11
162.63670684806749
 21
149.47987381057769
 31
0.0
  0
LINE
  5
FF
  8
DATA
  6
CONTINUOUS
 62
     7
 10
151.8228624864675
 20
150.33750420097769
 30
0.0
 11
157.24673171398189
 21
150.33750420097769
 31
0.0
  0
LINE
  5
100
  8
DATA
  6
CONTINUOUS
 62
     7
 10
140.0195824608675
 20
103.5147304857777
 30
0.0
 11
131.2500000000675
 21
103.5147304857777
 31
0.0
  0
LINE
  5
101
  8
DATA
  6
CONTINUOUS
 62
     7
 10
163.14920610246739
 20
147.94235044417769
 30
0.0
 11
154.53480463686751
 21
147.94235044417769
 31
0.0
  0
LINE
  5
102
  8
DATA
  6
CONTINUOUS
 62
     7
 10
135.4332044352675
 20
145.47409955137769
 30
0.0
 11
135.4332044352675
 21
144.46610156737771
 31
0.0
  0
LINE
  5
103
  8
DATA
  6
CONTINUOUS
 62
     7
 10
135.4332044352675
 20
144.46610156737771
 30
0.0
 11
134.4251808480675
 21
144.46610156737771
 31
0.0
  0
LINE
  5
104
  8
DATA
  6
CONTINUOUS
 62
     7
 10
134.4251808480675
 20
144.46610156737771
 30
0.0
 11
134.4251808480675
 21
143.96210257537771
 31
0.0
  0
LINE
  5
105
  8
DATA
  6
CONTINUOUS
 62
     7
 10
134.4251808480675
 20
143.96210257537771
 30
0.0
 11
135.4332044352675
 21
143.96210257537771
 31
0.0
  0
LINE
  5
106
  8
DATA
  6
CONTINUOUS
 62
     7
 10
135.4332044352675
 20
143.96210257537771
 30
0.0
 11
135.4332044352675
 21
142.9541045913777
 31
0.0
  0
LINE
  5
107
  8
DATA
  6
CONTINUOUS
 62
     7
 10
135.4332044352675
 20
142.9541045913777
 30
0.0
 11
135.93720342726741
 21
142.9541045913777
 31
0.0
  0
LINE
  5
108
  8
DATA
  6
CONTINUOUS
 62
     7
 10
135.93720342726741
 20
142.9541045913777
 30
0.0
 11
135.93720342726741
 21
143.96210257537771
 31
0.0
  0
LINE
  5
109
  8
DATA
  6
CONTINUOUS
 62
     7
 10
135.93720342726741
 20
143.96210257537771
 30
0.0
 11
136.94520141126739
 21
143.96210257537771
 31
0.0
  0
LINE
  5
10A
  8
DATA
  6
CONTINUOUS
 62
     7
 10
136.94520141126739
 20
143.96210257537771
 30
0.0
 11
136.94520141126739
 21
144.46610156737771
 31
0.0
  0
LINE
  5
10B
  8
DATA
  6
CONTINUOUS
 62
     7
 10
136.94520141126739
 20
144.46610156737771
 30
0.0
 11
135.93720342726741
 21
144.46610156737771
 31
0.0
  0
LINE
  5
10C
  8
DATA
  6
CONTINUOUS
 62
     7
 10
135.93720342726741
 20
144.46610156737771
 30
0.0
 11
135.93720342726741
 21
145.47409955137769
 31
0.0
  0
LINE
  5
10D
  8
DATA
  6
CONTINUOUS
 62
     7
 10
135.93720342726741
 20
145.47409955137769
 30
0.0
 11
135.4332044352675
 21
145.47409955137769
 31
0.0
  0
LINE
  5
10E
  8
DATA
  6
CONTINUOUS
 62
     7
 10
138.20518608966751
 20
144.35198810497769
 30
0.0
 11
138.20518608966751
 21
105.0399899193777
 31
0.0
  0
LINE
  5
10F
  8
DATA
  6
CONTINUOUS
 62
     7
 10
140.0195824608675
 20
145.36001169217769
 30
0.0
 11
139.21318407366749
 21
145.36001169217769
 31
0.0
  0
LINE
  5
110
  8
DATA
  6
CONTINUOUS
 62
     7
 10
155.34120302406751
 20
104.0319919353777
 30
0.0
 11
154.53480463686751
 21
104.0319919353777
 31
0.0
  0
LINE
  5
111
  8
DATA
  6
CONTINUOUS
 62
     7
 10
156.34920100806761
 20
105.0399899193777
 30
0.0
 11
156.34920100806761
 21
143.63924622337771
 31
0.0
  0
LINE
  5
112
  8
DATA
  6
CONTINUOUS
 62
     7
 10
154.9848064800675
 20
145.21238364097769
 30
0.0
 11
156.20157295686749
 21
143.9956171641777
 31
0.0
  0
LINE
  5
113
  8
DATA
  6
CONTINUOUS
 62
     7
 10
160.1292062496675
 20
144.46610156737771
 30
0.0
 11
159.1211826624675
 21
144.46610156737771
 31
0.0
  0
LINE
  5
114
  8
DATA
  6
CONTINUOUS
 62
     7
 10
159.1211826624675
 20
144.46610156737771
 30
0.0
 11
159.1211826624675
 21
145.47409955137769
 31
0.0
  0
LINE
  5
115
  8
DATA
  6
CONTINUOUS
 62
     7
 10
159.1211826624675
 20
145.47409955137769
 30
0.0
 11
158.61718367046751
 21
145.47409955137769
 31
0.0
  0
LINE
  5
116
  8
DATA
  6
CONTINUOUS
 62
     7
 10
158.61718367046751
 20
145.47409955137769
 30
0.0
 11
158.61718367046751
 21
144.46610156737771
 31
0.0
  0
LINE
  5
117
  8
DATA
  6
CONTINUOUS
 62
     7
 10
158.61718367046751
 20
144.46610156737771
 30
0.0
 11
157.60918568646761
 21
144.46610156737771
 31
0.0
  0
LINE
  5
118
  8
DATA
  6
CONTINUOUS
 62
     7
 10
157.60918568646761
 20
144.46610156737771
 30
0.0
 11
157.60918568646761
 21
143.96210257537771
 31
0.0
  0
LINE
  5
119
  8
DATA
  6
CONTINUOUS
 62
     7
 10
157.60918568646761
 20
143.96210257537771
 30
0.0
 11
158.61718367046751
 21
143.96210257537771
 31
0.0
  0
LINE
  5
11A
  8
DATA
  6
CONTINUOUS
 62
     7
 10
158.61718367046751
 20
143.96210257537771
 30
0.0
 11
158.61718367046751
 21
142.9541045913777
 31
0.0
  0
LINE
  5
11B
  8
DATA
  6
CONTINUOUS
 62
     7
 10
158.61718367046751
 20
142.9541045913777
 30
0.0
 11
159.1211826624675
 21
142.9541045913777
 31
0.0
  0
LINE
  5
11C
  8
DATA
  6
CONTINUOUS
 62
     7
 10
159.1211826624675
 20
142.9541045913777
 30
0.0
 11
159.1211826624675
 21
143.96210257537771
 31
0.0
  0
LINE
  5
11D
  8
DATA
  6
CONTINUOUS
 62
     7
 10
159.1211826624675
 20
143.96210257537771
 30
0.0
 11
160.1292062496675
 21
143.96210257537771
 31
0.0
  0
LINE
  5
11E
  8
DATA
  6
CONTINUOUS
 62
     7
 10
160.1292062496675
 20
143.96210257537771
 30
0.0
 11
160.1292062496675
 21
144.46610156737771
 31
0.0
  0
LINE
  5
11F
  8
DATA
  6
CONTINUOUS
 62
     7
 10
140.0195824608675
 20
147.94235044417769
 30
0.0
 11
154.53480463686751
 21
147.94235044417769
 31
0.0
  0
LINE
  5
120
  8
DATA
  6
CONTINUOUS
 62
     7
 10
154.53480463686751
 20
104.0319919353777
 30
0.0
 11
140.0195824608675
 21
104.0319919353777
 31
0.0
  0
LINE
  5
121
  8
DATA
  6
CONTINUOUS
 62
     7
 10
154.53480463686751
 20
149.47987381057769
 30
0.0
 11
152.55040301766749
 21
149.47987381057769
 31
0.0
  0
LINE
  5
122
  8
DATA
  6
CONTINUOUS
 62
     7
 10
162.46869864966749
 20
100.51692860737769
 30
0.0
 11
154.53480463686751
 21
100.51692860737769
 31
0.0
  0
LINE
  5
123
  8
DATA
  6
CONTINUOUS
 62
     7
 10
132.08568844806749
 20
100.51692860737769
 30
0.0
 11
140.0195824608675
 21
100.51692860737769
 31
0.0
  0
LINE
  5
124
  8
DATA
  6
CONTINUOUS
 62
     7
 10
161.91951000966739
 20
149.99680241857769
 30
0.0
 11
154.53480463686751
 21
149.99680241857769
 31
0.0
  0
LINE
  5
125
  8
DATA
  6
CONTINUOUS
 62
     7
 10
152.55040301766749
 20
149.99680241857769
 30
0.0
 11
154.53480463686751
 21
149.99680241857769
 31
0.0
  0
LINE
  5
126
  8
DATA
  6
CONTINUOUS
 62
     7
 10
140.0195824608675
 20
149.99680241857769
 30
0.0
 11
142.00398408006751
 21
149.99680241857769
 31
0.0
  0
LINE
  5
127
  8
DATA
  6
CONTINUOUS
 62
     7
 10
132.8028852864675
 20
99.999999999377707
 30
0.0
 11
140.0195824608675
 21
99.999999999377707
 31
0.0
  0
LINE
  5
128
  8
DATA
  6
CONTINUOUS
 62
     7
 10
142.79158971846749
 20
150.7527881049777
 30
0.0
 11
137.2475875008675
 21
150.7527881049777
 31
0.0
  0
LINE
  5
129
  8
DATA
  6
CONTINUOUS
 62
     7
 10
140.0195824608675
 20
103.5147304857777
 30
0.0
 11
154.53480463686751
 21
103.5147304857777
 31
0.0
  0
LINE
  5
12A
  8
DATA
  6
CONTINUOUS
 62
     7
 10
154.53480463686751
 20
102.55845096577769
 30
0.0
 11
140.0195824608675
 21
102.55845096577769
 31
0.0
  0
LINE
  5
12B
  8
DATA
  6
CONTINUOUS
 62
     7
 10
140.0195824608675
 20
102.55845096577769
 30
0.0
 11
131.4051809952675
 21
102.55845096577769
 31
0.0
  0
LINE
  5
12C
  8
DATA
  6
CONTINUOUS
 62
     7
 10
163.3043870976675
 20
146.98607092417771
 30
0.0
 11
154.53480463686751
 21
146.98607092417771
 31
0.0
  0
LINE
  5
12D
  8
DATA
  6
CONTINUOUS
 62
     7
 10
140.0195824608675
 20
104.0319919353777
 30
0.0
 11
139.21318407366749
 21
104.0319919353777
 31
0.0
  0
LINE
  5
12E
  8
DATA
  6
CONTINUOUS
 62
     7
 10
131.2500000000675
 20
146.98607092417771
 30
0.0
 11
140.0195824608675
 21
146.98607092417771
 31
0.0
  0
LINE
  5
12F
  8
DATA
  6
CONTINUOUS
 62
     7
 10
163.3043870976675
 20
103.5147304857777
 30
0.0
 11
154.53480463686751
 21
103.5147304857777
 31
0.0
  0
LINE
  5
130
  8
DATA
  6
CONTINUOUS
 62
     7
 10
154.62843553926751
 20
145.36001169217769
 30
0.0
 11
154.53480463686751
 21
145.36001169217769
 31
0.0
  0
LINE
  5
131
  8
DATA
  6
CONTINUOUS
 62
     7
 10
140.0195824608675
 20
147.94235044417769
 30
0.0
 11
131.4051809952675
 21
147.94235044417769
 31
0.0
  0
LINE
  5
132
  8
DATA
  6
CONTINUOUS
 62
     7
 10
154.53480463686751
 20
102.55845096577769
 30
0.0
 11
163.14920610246739
 21
102.55845096577769
 31
0.0
  0
LINE
  5
133
  8
DATA
  6
CONTINUOUS
 62
     7
 10
154.53480463686751
 20
146.98607092417771
 30
0.0
 11
140.0195824608675
 21
146.98607092417771
 31
0.0
  0
LINE
  5
134
  8
DATA
  6
CONTINUOUS
 62
     7
 10
154.53480463686751
 20
145.36001169217769
 30
0.0
 11
140.0195824608675
 21
145.36001169217769
 31
0.0
  0
LINE
  5
135
  8
DATA
  6
CONTINUOUS
 62
     7
 10
140.0195824608675
 20
100.51692860737769
 30
0.0
 11
154.53480463686751
 21
100.51692860737769
 31
0.0
  0
LINE
  5
136
  8
DATA
  6
CONTINUOUS
 62
     7
 10
131.91768024966751
 20
149.47987381057769
 30
0.0
 11
140.0195824608675
 21
149.47987381057769
 31
0.0
  0
LINE
  5
137
  8
DATA
  6
CONTINUOUS
 62
     7
 10
162.63670684806749
 20
149.47987381057769
 30
0.0
 11
154.53480463686751
 21
149.47987381057769
 31
0.0
  0
LINE
  5
138
  8
DATA
  6
CONTINUOUS
 62
     7
 10
142.00398408006751
 20
149.47987381057769
 30
0.0
 11
140.0195824608675
 21
149.47987381057769
 31
0.0
  0
LINE
  5
139
  8
DATA
  6
CONTINUOUS
 62
     7
 10
144.68799313926741
 20
150.99187078657769
 30
0.0
 11
142.8557513376675
 21
149.7426138489777
 31
0.0
  0
LINE
  5
13A
  8
DATA
  6
CONTINUOUS
 62
     7
 10
149.86639395846751
 20
150.99187078657769
 30
0.0
 11
144.68799313926741
 21
150.99187078657769
 31
0.0
  0
LINE
  5
13B
  8
DATA
  6
CONTINUOUS
 62
     7
 10
151.6986357600675
 20
149.7426138489777
 30
0.0
 11
149.86639395846751
 21
150.99187078657769
 31
0.0
  0
LINE
  5
13C
  8
DATA
  6
CONTINUOUS
 62
     7
 10
140.0195824608675
 20
149.99680241857769
 30
0.0
 11
132.63487708806761
 21
149.99680241857769
 31
0.0
  0
LINE
  5
13D
  8
DATA
  6
CONTINUOUS
 62
     7
 10
142.4298677088675
 20
150.12817243777769
 30
0.0
 11
144.2621095104675
 21
151.37742937537769
 31
0.0
  0
LINE
  5
13E
  8
DATA
  6
CONTINUOUS
 62
     7
 10
150.29227758726751
 20
151.37742937537769
 30
0.0
 11
152.12451938886761
 21
150.12817243777769
 31
0.0
  0
LINE
  5
13F
  8
DATA
  6
CONTINUOUS
 62
     7
 10
154.53480463686751
 20
99.999999999377707
 30
0.0
 11
161.7515018112675
 21
99.999999999377707
 31
0.0
  0
LINE
  5
140
  8
DATA
  6
CONTINUOUS
 62
     7
 10
154.53480463686751
 20
99.999999999377707
 30
0.0
 11
140.0195824608675
 21
99.999999999377707
 31
0.0
  0
LINE
  5
141
  8
DATA
  6
CONTINUOUS
 62
     7
 10
144.68799313926741
 20
151.50879939457769
 30
0.0
 11
149.86639395846751
 21
151.50879939457769
 31
0.0
  0
LINE
  5
142
  8
DATA
  6
CONTINUOUS
 62
     7
 10
137.49958750086751
 20
151.0048004025777
 30
0.0
 11
142.5396030240675
 21
151.0048004025777
 31
0.0
  0
LINE
  5
143
  8
DATA
  6
CONTINUOUS
 62
     7
 10
152.0147840736675
 20
150.7527881049777
 30
0.0
 11
157.0547995968675
 21
150.7527881049777
 31
0.0
  0
LINE
  5
144
  8
DATA
  6
CONTINUOUS
 62
     7
 10
63.050683472307043
 20
65.01960806420297
 30
0.0
 11
63.050683472307043
 21
63.507611088203042
 31
0.0
  0
LINE
  5
145
  8
DATA
  6
CONTINUOUS
 62
     7
 10
54.482700608306949
 20
63.507611088203042
 30
0.0
 11
54.482700608306949
 21
65.01960806420297
 31
0.0
  0
ARC
  5
146
  8
DATA
  6
CONTINUOUS
 62
     7
 10
57.799109621450128
 20
144.66187298334131
 30
0.0
 40
1.0138159395253441
 50
90.327752021452639
 51
179.67224797854979
  0
ARC
  5
147
  8
DATA
  6
CONTINUOUS
 62
     7
 10
61.263600052405849
 20
145.17131480822499
 30
0.0
 40
0.5043587575109646
 50
45.01529464293931
 51
89.983670965464086
  0
ARC
  5
148
  8
DATA
  6
CONTINUOUS
 62
     7
 10
62.480419719952543
 20
143.95488890704371
 30
0.0
 40
0.5040622030046782
 50
0.3536650206474396
 51
44.994262817281253
  0
ARC
  5
149
  8
DATA
  6
CONTINUOUS
 62
     7
 10
57.766223091625513
 20
104.6972418702543
 30
0.0
 40
0.9812881309263412
 50
178.4182811982412
 51
271.58177609749021
  0
ARC
  5
14A
  8
DATA
  6
CONTINUOUS
 62
     7
 10
61.97651616426262
 20
104.7243231797287
 30
0.0
 40
1.0079930968871149
 50
269.99972220879579
 51
0.0002777912090437
  0
ARC
  5
14B
  8
DATA
  6
CONTINUOUS
 62
     7
 10
53.025846886618261
 20
103.51502130093409
 30
0.0
 40
3.025846900255428
 50
180.00550671129719
 51
198.42923104335549
  0
ARC
  5
14C
  8
DATA
  6
CONTINUOUS
 62
     7
 10
51.552907637749037
 20
100.7560257884237
 30
0.0
 40
0.7560257891006565
 50
198.43545578588629
 51
269.99830611783688
  0
ARC
  5
14D
  8
DATA
  6
CONTINUOUS
 62
     7
 10
51.384875000633642
 20
149.24079805583301
 30
0.0
 40
0.7559930734233241
 50
89.999841775467914
 51
161.56427192117391
  0
ARC
  5
14E
  8
DATA
  6
CONTINUOUS
 62
     7
 10
80.669032247775164
 20
149.2401447946589
 30
0.0
 40
0.7566577750266443
 50
18.46993910068802
 51
89.96382280303564
  0
ARC
  5
14F
  8
DATA
  6
CONTINUOUS
 62
     7
 10
79.030532362578498
 20
146.98608426297619
 30
0.0
 40
3.0238607833890239
 50
359.99974726314542
 51
18.435696631239061
  0
ARC
  5
150
  8
DATA
  6
CONTINUOUS
 62
     7
 10
53.02679434253978
 20
146.98563562682659
 30
0.0
 40
3.0267943735029159
 50
161.57399712300389
 51
179.99176002270011
  0
ARC
  5
151
  8
DATA
  6
CONTINUOUS
 62
     7
 10
80.499647295786787
 20
100.758580306797
 30
0.0
 40
0.7585712844590072
 50
270.14007389102159
 51
341.42403980562273
  0
ARC
  5
152
  8
DATA
  6
CONTINUOUS
 62
     7
 10
79.027702229037587
 20
103.51514801930109
 30
0.0
 40
3.0266848976999832
 50
341.57366113762419
 51
359.99209600807882
  0
ARC
  5
153
  8
DATA
  6
CONTINUOUS
 62
     7
 10
63.43806901164735
 20
150.75254018969761
 30
0.0
 40
0.7562592089617266
 50
90.005748229716275
 51
124.28053544850459
  0
ARC
  5
154
  8
DATA
  6
CONTINUOUS
 62
     7
 10
68.616318458926415
 20
150.75254139663599
 30
0.0
 40
0.7562580019859997
 50
55.719436354565772
 51
89.994279967214112
  0
ARC
  5
155
  8
DATA
  6
CONTINUOUS
 62
     7
 10
56.250289465047189
 20
150.49885594962271
 30
0.0
 40
0.2539331258748657
 50
90.158386663640613
 51
130.5814359884063
  0
ARC
  5
156
  8
DATA
  6
CONTINUOUS
 62
     7
 10
56.249000799439699
 20
150.50124396621291
 30
0.0
 40
0.2512818139973556
 50
130.7124879861438
 51
174.9232319758228
  0
ARC
  5
157
  8
DATA
  6
CONTINUOUS
 62
     7
 10
56.250894253241057
 20
150.5010990050402
 30
0.0
 40
0.2531806685666858
 50
174.92847318126979
 51
220.25258044580841
  0
ARC
  5
158
  8
DATA
  6
CONTINUOUS
 62
     7
 10
61.289318775468793
 20
150.50054957147239
 30
0.0
 40
0.2522386939416795
 50
46.491367194857389
 51
89.935433125943376
  0
ARC
  5
159
  8
DATA
  6
CONTINUOUS
 62
     7
 10
61.290599483352779
 20
150.5010612709396
 30
0.0
 40
0.2509865145044654
 50
4.3876887556184814
 51
46.622988778975298
  0
ARC
  5
15A
  8
DATA
  6
CONTINUOUS
 62
     7
 10
61.279131741776347
 20
150.50185723999479
 30
0.0
 40
0.2623650723141011
 50
344.46177090523543
 51
4.0227759697837078
  0
ARC
  5
15B
  8
DATA
  6
CONTINUOUS
 62
     7
 10
61.286994199830559
 20
150.50222060352809
 30
0.0
 40
0.2548991452661142
 50
319.74412367931802
 51
343.90964215413283
  0
ARC
  5
15C
  8
DATA
  6
CONTINUOUS
 62
     7
 10
70.764957650462733
 20
150.75262784314219
 30
0.0
 40
0.2521603218525457
 50
90.039439999925193
 51
179.9635852970984
  0
ARC
  5
15D
  8
DATA
  6
CONTINUOUS
 62
     7
 10
75.804743278414492
 20
150.75269414313971
 30
0.0
 40
0.2521062660042605
 50
45.006049405872481
 51
89.987200535538364
  0
ARC
  5
15E
  8
DATA
  6
CONTINUOUS
 62
     7
 10
75.805967613085443
 20
150.7536996338454
 30
0.0
 40
0.2505296056011491
 50
18.167098015898961
 51
45.041477691522793
  0
ARC
  5
15F
  8
DATA
  6
CONTINUOUS
 62
     7
 10
75.807546490409493
 20
150.75299072827411
 30
0.0
 40
0.2492531890866892
 50
359.9534230825987
 51
18.435091463309789
  0
LINE
  5
160
  8
DATA
  6
CONTINUOUS
 62
     7
 10
70.101472302028924
 20
129.47393633189171
 30
0.0
 11
70.080988550769462
 21
131.91950805172479
 31
0.0
  0
LINE
  5
161
  8
DATA
  6
CONTINUOUS
 62
     7
 10
72.265782221845484
 20
142.4605588033167
 30
0.0
 11
72.249379843937405
 21
142.58606149603909
 31
0.0
  0
LINE
  5
162
  8
DATA
  6
CONTINUOUS
 62
     7
 10
72.249379843937405
 20
142.58606149603909
 30
0.0
 11
72.217086181292544
 21
142.6983131337775
 31
0.0
  0
LINE
  5
163
  8
DATA
  6
CONTINUOUS
 62
     7
 10
72.217086181292544
 20
142.6983131337775
 30
0.0
 11
72.168901233910901
 21
142.7973137165319
 31
0.0
  0
LINE
  5
164
  8
DATA
  6
CONTINUOUS
 62
     7
 10
72.168901233910901
 20
142.7973137165319
 30
0.0
 11
72.104825001792406
 21
142.88306324430221
 31
0.0
  0
LINE
  5
165
  8
DATA
  6
CONTINUOUS
 62
     7
 10
72.104825001792406
 20
142.88306324430221
 30
0.0
 11
72.026243173992526
 21
142.95622360183069
 31
0.0
  0
LINE
  5
166
  8
DATA
  6
CONTINUOUS
 62
     7
 10
72.026243173992526
 20
142.95622360183069
 30
0.0
 11
71.934541439566743
 21
143.0174566738597
 31
0.0
  0
LINE
  5
167
  8
DATA
  6
CONTINUOUS
 62
     7
 10
71.934541439566743
 20
143.0174566738597
 30
0.0
 11
71.834585492683118
 21
143.06483517375281
 31
0.0
  0
LINE
  5
168
  8
DATA
  6
CONTINUOUS
 62
     7
 10
71.834585492683118
 20
143.06483517375281
 30
0.0
 11
71.731241027510009
 21
143.09643181487371
 31
0.0
  0
LINE
  5
169
  8
DATA
  6
CONTINUOUS
 62
     7
 10
71.731241027510009
 20
143.09643181487371
 30
0.0
 11
71.626825471073076
 21
143.11180769717251
 31
0.0
  0
LINE
  5
16A
  8
DATA
  6
CONTINUOUS
 62
     7
 10
71.626825471073076
 20
143.11180769717251
 30
0.0
 11
71.523656250397622
 21
143.11052392059921
 31
0.0
  0
LINE
  5
16B
  8
DATA
  6
CONTINUOUS
 62
     7
 10
71.523656250397622
 20
143.11052392059921
 30
0.0
 11
71.424411408576574
 21
143.0929658909096
 31
0.0
  0
LINE
  5
16C
  8
DATA
  6
CONTINUOUS
 62
     7
 10
71.424411408576574
 20
143.0929658909096
 30
0.0
 11
71.331768988702962
 21
143.0595190138597
 31
0.0
  0
LINE
  5
16D
  8
DATA
  6
CONTINUOUS
 62
     7
 10
71.331768988702962
 20
143.0595190138597
 30
0.0
 11
71.2480144050337
 21
143.01044591187659
 31
0.0
  0
LINE
  5
16E
  8
DATA
  6
CONTINUOUS
 62
     7
 10
71.17543307182585
 20
142.94600920738739
 30
0.0
 11
71.2480144050337
 21
143.01044591187659
 31
0.0
  0
LINE
  5
16F
  8
DATA
  6
CONTINUOUS
 62
     7
 10
71.114024989079326
 20
142.86620890039231
 30
0.0
 11
71.17543307182585
 21
142.94600920738739
 31
0.0
  0
LINE
  5
170
  8
DATA
  6
CONTINUOUS
 62
     7
 10
71.063790156794184
 20
142.77104499089111
 30
0.0
 11
71.114024989079326
 21
142.86620890039231
 31
0.0
  0
LINE
  5
171
  8
DATA
  6
CONTINUOUS
 62
     7
 10
71.5318368501013
 20
134.63866641871539
 30
0.0
 11
70.056845721290756
 21
134.80190396432559
 31
0.0
  0
LINE
  5
172
  8
DATA
  6
CONTINUOUS
 62
     7
 10
72.305156450023816
 20
136.274222188957
 30
0.0
 11
72.295932709133822
 21
137.3753712197298
 31
0.0
  0
LINE
  5
173
  8
DATA
  6
CONTINUOUS
 62
     7
 10
72.272026922895762
 20
140.2294759760909
 30
0.0
 11
70.009228853879449
 21
140.48685304086399
 31
0.0
  0
LINE
  5
174
  8
DATA
  6
CONTINUOUS
 62
     7
 10
71.135468527858492
 20
132.53784370625081
 30
0.0
 11
71.072835099237295
 21
132.6917099159526
 31
0.0
  0
LINE
  5
175
  8
DATA
  6
CONTINUOUS
 62
     7
 10
71.20247575536952
 20
132.40672011513041
 30
0.0
 11
71.135468527858492
 21
132.53784370625081
 31
0.0
  0
LINE
  5
176
  8
DATA
  6
CONTINUOUS
 62
     7
 10
71.273856781770192
 20
132.29833914259149
 30
0.0
 11
71.20247575536952
 21
132.40672011513041
 31
0.0
  0
LINE
  5
177
  8
DATA
  6
CONTINUOUS
 62
     7
 10
71.349611607060638
 20
132.21270078863421
 30
0.0
 11
71.273856781770192
 21
132.29833914259149
 31
0.0
  0
LINE
  5
178
  8
DATA
  6
CONTINUOUS
 62
     7
 10
71.435032815664727
 20
132.14397790450761
 30
0.0
 11
71.349611607060638
 21
132.21270078863421
 31
0.0
  0
LINE
  5
179
  8
DATA
  6
CONTINUOUS
 62
     7
 10
71.535412992006187
 20
132.08634334146109
 30
0.0
 11
71.435032815664727
 21
132.14397790450761
 31
0.0
  0
LINE
  5
17A
  8
DATA
  6
CONTINUOUS
 62
     7
 10
71.64585275695687
 20
132.0466008935274
 30
0.0
 11
71.535412992006187
 21
132.08634334146109
 31
0.0
  0
LINE
  5
17B
  8
DATA
  6
CONTINUOUS
 62
     7
 10
71.761452731388673
 20
132.0315543547388
 30
0.0
 11
71.64585275695687
 21
132.0466008935274
 31
0.0
  0
LINE
  5
17C
  8
DATA
  6
CONTINUOUS
 62
     7
 10
71.87568728023156
 20
132.03867389424201
 30
0.0
 11
71.761452731388673
 21
132.0315543547388
 31
0.0
  0
LINE
  5
17D
  8
DATA
  6
CONTINUOUS
 62
     7
 10
71.982030768415271
 20
132.0654296811835
 30
0.0
 11
71.87568728023156
 21
132.03867389424201
 31
0.0
  0
LINE
  5
17E
  8
DATA
  6
CONTINUOUS
 62
     7
 10
72.079529076580243
 20
132.1114827822781
 30
0.0
 11
71.982030768415271
 21
132.0654296811835
 31
0.0
  0
LINE
  5
17F
  8
DATA
  6
CONTINUOUS
 62
     7
 10
72.167228085367043
 20
132.1764942642408
 30
0.0
 11
72.079529076580243
 21
132.1114827822781
 31
0.0
  0
LINE
  5
180
  8
DATA
  6
CONTINUOUS
 62
     7
 10
72.167228085367043
 20
132.1764942642408
 30
0.0
 11
72.239870279631205
 21
132.25539814394699
 31
0.0
  0
LINE
  5
181
  8
DATA
  6
CONTINUOUS
 62
     7
 10
72.239870279631205
 20
132.25539814394699
 30
0.0
 11
72.292198144228692
 21
132.34312843827209
 31
0.0
  0
LINE
  5
182
  8
DATA
  6
CONTINUOUS
 62
     7
 10
72.292198144228692
 20
132.34312843827209
 30
0.0
 11
72.324335334390199
 21
132.44089543911551
 31
0.0
  0
LINE
  5
183
  8
DATA
  6
CONTINUOUS
 62
     7
 10
72.324335334390199
 20
132.44089543911551
 30
0.0
 11
72.336405505346562
 21
132.54990943837601
 31
0.0
  0
LINE
  5
184
  8
DATA
  6
CONTINUOUS
 62
     7
 10
72.293279451852428
 20
137.6922054723635
 30
0.0
 11
72.284095949699704
 21
138.7885581959934
 31
0.0
  0
LINE
  5
185
  8
DATA
  6
CONTINUOUS
 62
     7
 10
71.844939628276293
 20
129.296965335312
 30
0.0
 11
71.83403029323928
 21
130.59946891834969
 31
0.0
  0
LINE
  5
186
  8
DATA
  6
CONTINUOUS
 62
     7
 10
72.28214944419075
 20
140.5064222039075
 30
0.0
 11
71.769706228237624
 21
140.56995780696641
 31
0.0
  0
LINE
  5
187
  8
DATA
  6
CONTINUOUS
 62
     7
 10
70.986134217071253
 20
130.70849706877229
 30
0.0
 11
70.685516839067532
 21
130.74715308140151
 31
0.0
  0
LINE
  5
188
  8
DATA
  6
CONTINUOUS
 62
     7
 10
70.601259109960665
 20
143.2082509791156
 30
0.0
 11
69.984694456944567
 21
143.30267619739749
 31
0.0
  0
LINE
  5
189
  8
DATA
  6
CONTINUOUS
 62
     7
 10
71.573578423124232
 20
129.32451030953689
 30
0.0
 11
70.997237275258954
 21
129.38301207453171
 31
0.0
  0
LINE
  5
18A
  8
DATA
  6
CONTINUOUS
 62
     7
 10
72.317066922105383
 20
134.85221631635841
 30
0.0
 11
71.192399155526687
 21
134.97521600981929
 31
0.0
  0
LINE
  5
18B
  8
DATA
  6
CONTINUOUS
 62
     7
 10
70.814012199328204
 20
138.9565373039263
 30
0.0
 11
70.811137441725336
 21
139.29975013453529
 31
0.0
  0
LINE
  5
18C
  8
DATA
  6
CONTINUOUS
 62
     7
 10
70.744056436249707
 20
136.16435560551199
 30
0.0
 11
70.741616858529696
 21
136.4556574052429
 31
0.0
  0
LINE
  5
18D
  8
DATA
  6
CONTINUOUS
 62
     7
 10
71.821056033616756
 20
133.03137282251319
 30
0.0
 11
71.80785476711948
 21
134.6074983178757
 31
0.0
  0
LINE
  5
18E
  8
DATA
  6
CONTINUOUS
 62
     7
 10
72.281213832043932
 20
139.13275010374591
 30
0.0
 11
71.496519941890952
 21
139.2220925493603
 31
0.0
  0
LINE
  5
18F
  8
DATA
  6
CONTINUOUS
 62
     7
 10
72.343583563582811
 20
131.66246417792431
 30
0.0
 11
70.65600040811978
 21
131.85539389287709
 31
0.0
  0
LINE
  5
190
  8
DATA
  6
CONTINUOUS
 62
     7
 10
70.030472948345732
 20
137.9505823669374
 30
0.0
 11
70.021290452961921
 21
139.04683526292479
 31
0.0
  0
LINE
  5
191
  8
DATA
  6
CONTINUOUS
 62
     7
 10
71.573578423124232
 20
129.32451030953689
 30
0.0
 11
71.562607204498477
 21
130.6343702117247
 31
0.0
  0
LINE
  5
192
  8
DATA
  6
CONTINUOUS
 62
     7
 10
71.198331734477279
 20
140.89491954671141
 30
0.0
 11
71.755953276677374
 21
142.21183854040081
 31
0.0
  0
LINE
  5
193
  8
DATA
  6
CONTINUOUS
 62
     7
 10
70.61427141094623
 20
141.6546603751639
 30
0.0
 11
71.063790271782182
 21
142.77104462923199
 31
0.0
  0
LINE
  5
194
  8
DATA
  6
CONTINUOUS
 62
     7
 10
70.064783105838615
 20
133.8542498031413
 30
0.0
 11
70.056845721290756
 21
134.80190396432559
 31
0.0
  0
LINE
  5
195
  8
DATA
  6
CONTINUOUS
 62
     7
 10
72.295932709133822
 20
137.3753712197298
 30
0.0
 11
71.171057321839612
 21
137.52319056762559
 31
0.0
  0
LINE
  5
196
  8
DATA
  6
CONTINUOUS
 62
     7
 10
70.018410538876992
 20
139.39064416752291
 30
0.0
 11
70.009228853879449
 21
140.48685304086399
 31
0.0
  0
LINE
  5
197
  8
DATA
  6
CONTINUOUS
 62
     7
 10
72.336405682229397
 20
132.5499098434411
 30
0.0
 11
72.319619076257155
 21
134.54752446104439
 31
0.0
  0
LINE
  5
198
  8
DATA
  6
CONTINUOUS
 62
     7
 10
72.284095949699704
 20
138.7885581959934
 30
0.0
 11
71.499723665097932
 21
138.87837948097399
 31
0.0
  0
LINE
  5
199
  8
DATA
  6
CONTINUOUS
 62
     7
 10
72.365263480214267
 20
129.24415032619899
 30
0.0
 11
71.844939628276293
 21
129.296965335312
 31
0.0
  0
LINE
  5
19A
  8
DATA
  6
CONTINUOUS
 62
     7
 10
72.28214944419075
 20
140.5064222039075
 30
0.0
 11
72.265782234197687
 21
142.46055869361979
 31
0.0
  0
LINE
  5
19B
  8
DATA
  6
CONTINUOUS
 62
     7
 10
70.696687102776878
 20
129.41351863589171
 30
0.0
 11
70.101472302028924
 21
129.47393633189171
 31
0.0
  0
LINE
  5
19C
  8
DATA
  6
CONTINUOUS
 62
     7
 10
70.997237275258954
 20
129.38301207453171
 30
0.0
 11
70.986134217071253
 21
130.70849706877229
 31
0.0
  0
LINE
  5
19D
  8
DATA
  6
CONTINUOUS
 62
     7
 10
70.00088226559501
 20
141.3700434929539
 30
0.0
 11
69.984694456944567
 21
143.30267619739749
 31
0.0
  0
LINE
  5
19E
  8
DATA
  6
CONTINUOUS
 62
     7
 10
70.022844402231158
 20
132.14485518591869
 30
0.0
 11
70.017014817581298
 21
133.24108754475751
 31
0.0
  0
LINE
  5
19F
  8
DATA
  6
CONTINUOUS
 62
     7
 10
72.317066922105383
 20
134.85221631635841
 30
0.0
 11
72.307644007417736
 21
135.97727477043441
 31
0.0
  0
LINE
  5
1A0
  8
DATA
  6
CONTINUOUS
 62
     7
 10
71.545004968058279
 20
133.06653831464581
 30
0.0
 11
71.5318368501013
 21
134.63866641871539
 31
0.0
  0
LINE
  5
1A1
  8
DATA
  6
CONTINUOUS
 62
     7
 10
72.305156450023816
 20
136.274222188957
 30
0.0
 11
70.741616858529696
 21
136.4556574052429
 31
0.0
  0
LINE
  5
1A2
  8
DATA
  6
CONTINUOUS
 62
     7
 10
71.821056033616756
 20
133.03137282251319
 30
0.0
 11
71.545004968058279
 21
133.06653831464581
 31
0.0
  0
LINE
  5
1A3
  8
DATA
  6
CONTINUOUS
 62
     7
 10
72.281213832043932
 20
139.13275010374591
 30
0.0
 11
72.272026922895762
 21
140.2294759760909
 31
0.0
  0
LINE
  5
1A4
  8
DATA
  6
CONTINUOUS
 62
     7
 10
72.293279451852428
 20
137.6922054723635
 30
0.0
 11
70.030472948345732
 21
137.9505823669374
 31
0.0
  0
LINE
  5
1A5
  8
DATA
  6
CONTINUOUS
 62
     7
 10
71.83403029323928
 20
130.59946891834969
 30
0.0
 11
71.562607204498477
 21
130.6343702117247
 31
0.0
  0
LINE
  5
1A6
  8
DATA
  6
CONTINUOUS
 62
     7
 10
71.769706228237624
 20
140.56995780696641
 30
0.0
 11
71.755953276677374
 21
142.21183854040081
 31
0.0
  0
LINE
  5
1A7
  8
DATA
  6
CONTINUOUS
 62
     7
 10
70.808423120778457
 20
133.34282831947471
 30
0.0
 11
70.017014817581298
 21
133.24108754475751
 31
0.0
  0
LINE
  5
1A8
  8
DATA
  6
CONTINUOUS
 62
     7
 10
70.696687102776878
 20
129.41351863589171
 30
0.0
 11
70.685516839067532
 21
130.74715308140151
 31
0.0
  0
LINE
  5
1A9
  8
DATA
  6
CONTINUOUS
 62
     7
 10
70.61427141094623
 20
141.6546603751639
 30
0.0
 11
70.601259109960665
 21
143.2082509791156
 31
0.0
  0
LINE
  5
1AA
  8
DATA
  6
CONTINUOUS
 62
     7
 10
70.806180298901268
 20
133.76464753101689
 30
0.0
 11
70.064783105838615
 21
133.8542498031413
 31
0.0
  0
LINE
  5
1AB
  8
DATA
  6
CONTINUOUS
 62
     7
 10
71.171057200979135
 20
137.5231910348532
 30
0.0
 11
70.903904455849329
 21
137.53726299025411
 31
0.0
  0
LINE
  5
1AC
  8
DATA
  6
CONTINUOUS
 62
     7
 10
70.903904455849329
 20
137.53726299025411
 30
0.0
 11
70.684421804129101
 21
137.51758240955681
 31
0.0
  0
LINE
  5
1AD
  8
DATA
  6
CONTINUOUS
 62
     7
 10
70.684421804129101
 20
137.51758240955681
 30
0.0
 11
70.494797598281593
 21
137.45817369209891
 31
0.0
  0
LINE
  5
1AE
  8
DATA
  6
CONTINUOUS
 62
     7
 10
70.494797598281593
 20
137.45817369209891
 30
0.0
 11
70.317220190769717
 21
137.35306123721841
 31
0.0
  0
LINE
  5
1AF
  8
DATA
  6
CONTINUOUS
 62
     7
 10
70.166360158065345
 20
137.20894340001331
 30
0.0
 11
70.317220190769717
 21
137.35306123721841
 31
0.0
  0
LINE
  5
1B0
  8
DATA
  6
CONTINUOUS
 62
     7
 10
70.056888076640249
 20
137.03251853558169
 30
0.0
 11
70.166360158065345
 21
137.20894340001331
 31
0.0
  0
LINE
  5
1B1
  8
DATA
  6
CONTINUOUS
 62
     7
 10
69.98454740557429
 20
136.82249304582291
 30
0.0
 11
70.056888076640249
 21
137.03251853558169
 31
0.0
  0
LINE
  5
1B2
  8
DATA
  6
CONTINUOUS
 62
     7
 10
69.945081603947187
 20
136.57757333263621
 30
0.0
 11
69.98454740557429
 21
136.82249304582291
 31
0.0
  0
LINE
  5
1B3
  8
DATA
  6
CONTINUOUS
 62
     7
 10
69.945004398927836
 20
136.31437123070549
 30
0.0
 11
69.945081603947187
 21
136.57757333263621
 31
0.0
  0
LINE
  5
1B4
  8
DATA
  6
CONTINUOUS
 62
     7
 10
69.99082951768537
 20
136.0494985747149
 30
0.0
 11
69.945004398927836
 21
136.31437123070549
 31
0.0
  0
LINE
  5
1B5
  8
DATA
  6
CONTINUOUS
 62
     7
 10
70.089045752379548
 20
135.76742159774571
 30
0.0
 11
69.99082951768537
 21
136.0494985747149
 31
0.0
  0
LINE
  5
1B6
  8
DATA
  6
CONTINUOUS
 62
     7
 10
70.225464508800542
 20
135.532490840973
 30
0.0
 11
70.089045752379548
 21
135.76742159774571
 31
0.0
  0
LINE
  5
1B7
  8
DATA
  6
CONTINUOUS
 62
     7
 10
70.311899812880597
 20
135.42878617536289
 30
0.0
 11
70.225464508800542
 21
135.532490840973
 31
0.0
  0
LINE
  5
1B8
  8
DATA
  6
CONTINUOUS
 62
     7
 10
70.533026188458848
 20
135.23622945097591
 30
0.0
 11
70.311899812880597
 21
135.42878617536289
 31
0.0
  0
LINE
  5
1B9
  8
DATA
  6
CONTINUOUS
 62
     7
 10
70.791526218367039
 20
135.08428288549109
 30
0.0
 11
70.533026188458848
 21
135.23622945097591
 31
0.0
  0
LINE
  5
1BA
  8
DATA
  6
CONTINUOUS
 62
     7
 10
70.921772422235904
 20
135.0326632418099
 30
0.0
 11
70.791526218367039
 21
135.08428288549109
 31
0.0
  0
LINE
  5
1BB
  8
DATA
  6
CONTINUOUS
 62
     7
 10
71.054263449541281
 20
134.99686402778121
 30
0.0
 11
70.921772422235904
 21
135.0326632418099
 31
0.0
  0
LINE
  5
1BC
  8
DATA
  6
CONTINUOUS
 62
     7
 10
71.192398888679122
 20
134.9752154890879
 30
0.0
 11
71.054263449541281
 21
134.99686402778121
 31
0.0
  0
LINE
  5
1BD
  8
DATA
  6
CONTINUOUS
 62
     7
 10
70.811137441725336
 20
139.29975013453529
 30
0.0
 11
70.018410538876992
 21
139.39064416752291
 31
0.0
  0
LINE
  5
1BE
  8
DATA
  6
CONTINUOUS
 62
     7
 10
72.307644007417736
 20
135.97727477043441
 30
0.0
 11
70.744056436249707
 21
136.16435560551199
 31
0.0
  0
LINE
  5
1BF
  8
DATA
  6
CONTINUOUS
 62
     7
 10
72.319619076257155
 20
134.54752446104439
 30
0.0
 11
71.80785476711948
 21
134.6074983178757
 31
0.0
  0
LINE
  5
1C0
  8
DATA
  6
CONTINUOUS
 62
     7
 10
71.499723665097932
 20
138.87837948097399
 30
0.0
 11
71.496519941890952
 21
139.2220925493603
 31
0.0
  0
LINE
  5
1C1
  8
DATA
  6
CONTINUOUS
 62
     7
 10
72.365263480214267
 20
129.24415032619899
 30
0.0
 11
72.343583563582811
 21
131.66246417792431
 31
0.0
  0
LINE
  5
1C2
  8
DATA
  6
CONTINUOUS
 62
     7
 10
70.814012199328204
 20
138.9565373039263
 30
0.0
 11
70.021290452961921
 21
139.04683526292479
 31
0.0
  0
LINE
  5
1C3
  8
DATA
  6
CONTINUOUS
 62
     7
 10
70.808423120778457
 20
133.34282831947471
 30
0.0
 11
70.806180298901268
 21
133.76464753101689
 31
0.0
  0
LINE
  5
1C4
  8
DATA
  6
CONTINUOUS
 62
     7
 10
70.019407463875595
 20
141.21824725755329
 30
0.0
 11
70.000882107617372
 21
141.37004354740881
 31
0.0
  0
LINE
  5
1C5
  8
DATA
  6
CONTINUOUS
 62
     7
 10
70.05415537349802
 20
141.08561749112741
 30
0.0
 11
70.019407463875595
 21
141.21824725755329
 31
0.0
  0
LINE
  5
1C6
  8
DATA
  6
CONTINUOUS
 62
     7
 10
70.105683219244042
 20
140.9701900580524
 30
0.0
 11
70.05415537349802
 21
141.08561749112741
 31
0.0
  0
LINE
  5
1C7
  8
DATA
  6
CONTINUOUS
 62
     7
 10
70.174548383873685
 20
140.8700007682497
 30
0.0
 11
70.105683219244042
 21
140.9701900580524
 31
0.0
  0
LINE
  5
1C8
  8
DATA
  6
CONTINUOUS
 62
     7
 10
70.258551685879297
 20
140.7845931404176
 30
0.0
 11
70.174548383873685
 21
140.8700007682497
 31
0.0
  0
LINE
  5
1C9
  8
DATA
  6
CONTINUOUS
 62
     7
 10
70.355493943753785
 20
140.71351069325391
 30
0.0
 11
70.258551685879297
 21
140.7845931404176
 31
0.0
  0
LINE
  5
1CA
  8
DATA
  6
CONTINUOUS
 62
     7
 10
70.459287196282276
 20
140.6586231310132
 30
0.0
 11
70.355493943753785
 21
140.71351069325391
 31
0.0
  0
LINE
  5
1CB
  8
DATA
  6
CONTINUOUS
 62
     7
 10
70.563843482249922
 20
140.62180015794939
 30
0.0
 11
70.459287196282276
 21
140.6586231310132
 31
0.0
  0
LINE
  5
1CC
  8
DATA
  6
CONTINUOUS
 62
     7
 10
70.667237917069201
 20
140.60248548076581
 30
0.0
 11
70.563843482249922
 21
140.62180015794939
 31
0.0
  0
LINE
  5
1CD
  8
DATA
  6
CONTINUOUS
 62
     7
 10
70.767545616152447
 20
140.60012280616519
 30
0.0
 11
70.667237917069201
 21
140.60248548076581
 31
0.0
  0
LINE
  5
1CE
  8
DATA
  6
CONTINUOUS
 62
     7
 10
70.862038118769775
 20
140.6132847778492
 30
0.0
 11
70.767545616152447
 21
140.60012280616519
 31
0.0
  0
LINE
  5
1CF
  8
DATA
  6
CONTINUOUS
 62
     7
 10
70.9479869641915
 20
140.64054403951911
 30
0.0
 11
70.862038118769775
 21
140.6132847778492
 31
0.0
  0
LINE
  5
1D0
  8
DATA
  6
CONTINUOUS
 62
     7
 10
71.02489128161767
 20
140.68217346045739
 30
0.0
 11
70.9479869641915
 21
140.64054403951911
 31
0.0
  0
LINE
  5
1D1
  8
DATA
  6
CONTINUOUS
 62
     7
 10
71.02489128161767
 20
140.68217346045739
 30
0.0
 11
71.092250200248813
 21
140.73844590994699
 31
0.0
  0
LINE
  5
1D2
  8
DATA
  6
CONTINUOUS
 62
     7
 10
71.092250200248813
 20
140.73844590994699
 30
0.0
 11
71.1500637200851
 21
140.80936138798759
 31
0.0
  0
LINE
  5
1D3
  8
DATA
  6
CONTINUOUS
 62
     7
 10
71.1500637200851
 20
140.80936138798759
 30
0.0
 11
71.198331841126091
 21
140.8949198945794
 31
0.0
  0
LINE
  5
1D4
  8
DATA
  6
CONTINUOUS
 62
     7
 10
70.65600040811978
 20
131.85539389287709
 30
0.0
 11
70.081019384113574
 21
131.91582683369751
 31
0.0
  0
LINE
  5
1D5
  8
DATA
  6
CONTINUOUS
 62
     7
 10
70.022844402231158
 20
132.14485518591869
 30
0.0
 11
71.072835099237295
 21
132.6917099159526
 31
0.0
  0
ARC
  5
1D6
  8
DATA
  6
CONTINUOUS
 62
     7
 10
50.485857965811071
 20
144.48534409804029
 30
0.0
 40
0.5726807476079907
 50
57.283075976847499
 51
91.055350806277929
  0
ARC
  5
1D7
  8
DATA
  6
CONTINUOUS
 62
     7
 10
50.667823539623527
 20
144.77927455012841
 30
0.0
 40
0.2271049418190925
 50
23.697342088061131
 51
55.827424471503058
  0
ARC
  5
1D8
  8
DATA
  6
CONTINUOUS
 62
     7
 10
50.711458867269108
 20
144.79804715841499
 30
0.0
 40
0.179604416468325
 50
7.110077107161545
 51
23.80821257403047
  0
ARC
  5
1D9
  8
DATA
  6
CONTINUOUS
 62
     7
 10
40.690266847000217
 20
144.15224284971001
 30
0.0
 40
10.221269172541991
 50
3.664921267028491
 51
3.747371189401683
  0
ARC
  5
1DA
  8
DATA
  6
CONTINUOUS
 62
     7
 10
51.30628866292578
 20
144.83597146989311
 30
0.0
 40
1.248540918021207
 50
174.5334884899851
 51
181.39389002082899
  0
ARC
  5
1DB
  8
DATA
  6
CONTINUOUS
 62
     7
 10
51.138396840508101
 20
144.83376319839141
 30
0.0
 40
1.0817760088883861
 50
169.66084796327399
 51
173.5698979204937
  0
ARC
  5
1DC
  8
DATA
  6
CONTINUOUS
 62
     7
 10
50.13268976928839
 20
145.0204201561196
 30
0.0
 40
0.0589817847855368
 50
149.77839343238509
 51
172.70024871526871
  0
ARC
  5
1DD
  8
DATA
  6
CONTINUOUS
 62
     7
 10
50.096124670308981
 20
145.04144386350501
 30
0.0
 40
0.0169630290825202
 50
107.6063357095192
 51
124.8113999546386
  0
ARC
  5
1DE
  8
DATA
  6
CONTINUOUS
 62
     7
 10
50.100204905610319
 20
145.0382912447524
 30
0.0
 40
0.0219356032790313
 50
128.86405965480779
 51
147.4034575361004
  0
LINE
  5
1DF
  8
DATA
  6
CONTINUOUS
 62
     7
 10
50.438738103737712
 20
139.5136100771436
 30
0.0
 11
50.475310157236088
 21
139.51328237576479
 31
0.0
  0
LINE
  5
1E0
  8
DATA
  6
CONTINUOUS
 62
     7
 10
50.090993773138052
 20
139.5135977795436
 30
0.0
 11
50.438736435537969
 21
139.5135977795436
 31
0.0
  0
ARC
  5
1E1
  8
DATA
  6
CONTINUOUS
 62
     7
 10
50.485857965811071
 20
140.08586597875669
 30
0.0
 40
0.5726807476080241
 50
268.94464919372223
 51
302.71692402315023
  0
ARC
  5
1E2
  8
DATA
  6
CONTINUOUS
 62
     7
 10
50.667823539623527
 20
139.79193552666851
 30
0.0
 40
0.2271049418190179
 50
304.172575528501
 51
336.30265791193068
  0
ARC
  5
1E3
  8
DATA
  6
CONTINUOUS
 62
     7
 10
50.711458867269108
 20
139.7731629183819
 30
0.0
 40
0.1796044164683707
 50
336.19178742598422
 51
352.88992289283851
  0
ARC
  5
1E4
  8
DATA
  6
CONTINUOUS
 62
     7
 10
40.690266847000217
 20
140.41896722708691
 30
0.0
 40
10.22126917254206
 50
356.25262881059842
 51
356.33507873297179
  0
ARC
  5
1E5
  8
DATA
  6
CONTINUOUS
 62
     7
 10
51.30628866292578
 20
139.73523860690389
 30
0.0
 40
1.2485409180211819
 50
178.60610997917041
 51
185.4665115100143
  0
ARC
  5
1E6
  8
DATA
  6
CONTINUOUS
 62
     7
 10
51.138396840508101
 20
139.73744687840551
 30
0.0
 40
1.081776008888325
 50
186.43010207950621
 51
190.339152036727
  0
ARC
  5
1E7
  8
DATA
  6
CONTINUOUS
 62
     7
 10
50.13268976928839
 20
139.5507899206774
 30
0.0
 40
0.0589817847855775
 50
187.2997512847308
 51
210.22160656762679
  0
ARC
  5
1E8
  8
DATA
  6
CONTINUOUS
 62
     7
 10
50.096124670308981
 20
139.52976621329191
 30
0.0
 40
0.016963029082495
 50
235.1886000453614
 51
252.39366429048081
  0
ARC
  5
1E9
  8
DATA
  6
CONTINUOUS
 62
     7
 10
50.100204905610319
 20
139.5329188320446
 30
0.0
 40
0.0219356032790708
 50
212.5965424638996
 51
231.13594034516879
  0
LINE
  5
1EA
  8
DATA
  6
CONTINUOUS
 62
     7
 10
50.438738103737712
 20
138.00159999965339
 30
0.0
 11
50.475310157236088
 21
138.0019277010322
 31
0.0
  0
LINE
  5
1EB
  8
DATA
  6
CONTINUOUS
 62
     7
 10
50.058119264338067
 20
132.7096100796534
 30
0.0
 11
50.058119264338067
 21
137.74959999965341
 31
0.0
  0
LINE
  5
1EC
  8
DATA
  6
CONTINUOUS
 62
     7
 10
50.090993773138052
 20
138.00161229725339
 30
0.0
 11
50.438736435537969
 21
138.00161229725339
 31
0.0
  0
LINE
  5
1ED
  8
DATA
  6
CONTINUOUS
 62
     7
 10
50.890632915537921
 20
137.74959999965341
 30
0.0
 11
50.890632915537921
 21
132.7096100796534
 31
0.0
  0
ARC
  5
1EE
  8
DATA
  6
CONTINUOUS
 62
     7
 10
50.485857965811071
 20
137.4293440980403
 30
0.0
 40
0.5726807476080027
 50
57.283075976848259
 51
91.055350806277929
  0
ARC
  5
1EF
  8
DATA
  6
CONTINUOUS
 62
     7
 10
50.667823539623527
 20
137.72327455012839
 30
0.0
 40
0.2271049418190925
 50
23.697342088061131
 51
55.827424471501061
  0
ARC
  5
1F0
  8
DATA
  6
CONTINUOUS
 62
     7
 10
50.711458867269108
 20
137.74204715841501
 30
0.0
 40
0.179604416468325
 50
7.110077107161545
 51
23.80821257402631
  0
ARC
  5
1F1
  8
DATA
  6
CONTINUOUS
 62
     7
 10
40.690266847000217
 20
137.09624284970999
 30
0.0
 40
10.221269172541991
 50
3.664921267028471
 51
3.7473711894016639
  0
ARC
  5
1F2
  8
DATA
  6
CONTINUOUS
 62
     7
 10
51.30628866292578
 20
137.7799714698931
 30
0.0
 40
1.248540918021205
 50
174.53348848998641
 51
181.3938900208295
  0
ARC
  5
1F3
  8
DATA
  6
CONTINUOUS
 62
     7
 10
51.138396840508101
 20
137.77776319839151
 30
0.0
 40
1.0817760088883861
 50
169.66084796327399
 51
173.5698979204945
  0
ARC
  5
1F4
  8
DATA
  6
CONTINUOUS
 62
     7
 10
50.13268976928839
 20
137.9644201561195
 30
0.0
 40
0.058981784785544
 50
149.77839343237321
 51
172.70024871526911
  0
ARC
  5
1F5
  8
DATA
  6
CONTINUOUS
 62
     7
 10
50.096124670308981
 20
137.985443863505
 30
0.0
 40
0.0169630290825202
 50
107.6063357095192
 51
124.8113999546386
  0
ARC
  5
1F6
  8
DATA
  6
CONTINUOUS
 62
     7
 10
50.100204905610319
 20
137.9822912447523
 30
0.0
 40
0.0219356032790313
 50
128.86405965480779
 51
147.4034575361004
  0
LINE
  5
1F7
  8
DATA
  6
CONTINUOUS
 62
     7
 10
50.438738103737712
 20
132.45761007714361
 30
0.0
 11
50.475310157236088
 21
132.45728237576469
 31
0.0
  0
LINE
  5
1F8
  8
DATA
  6
CONTINUOUS
 62
     7
 10
50.090993773138052
 20
132.45759777954359
 30
0.0
 11
50.438736435537969
 21
132.45759777954359
 31
0.0
  0
ARC
  5
1F9
  8
DATA
  6
CONTINUOUS
 62
     7
 10
50.485857965811071
 20
133.0298659787567
 30
0.0
 40
0.5726807476080099
 50
268.94464919372223
 51
302.71692402315108
  0
ARC
  5
1FA
  8
DATA
  6
CONTINUOUS
 62
     7
 10
50.667823539623527
 20
132.7359355266685
 30
0.0
 40
0.2271049418190149
 50
304.1725755285014
 51
336.30265791193148
  0
ARC
  5
1FB
  8
DATA
  6
CONTINUOUS
 62
     7
 10
50.711458867269108
 20
132.717162918382
 30
0.0
 40
0.1796044164683693
 50
336.19178742598518
 51
352.88992289283851
  0
ARC
  5
1FC
  8
DATA
  6
CONTINUOUS
 62
     7
 10
40.690266847000217
 20
133.36296722708701
 30
0.0
 40
10.22126917254206
 50
356.25262881059831
 51
356.33507873297179
  0
ARC
  5
1FD
  8
DATA
  6
CONTINUOUS
 62
     7
 10
51.30628866292578
 20
132.67923860690391
 30
0.0
 40
1.2485409180211819
 50
178.60610997917041
 51
185.4665115100141
  0
ARC
  5
1FE
  8
DATA
  6
CONTINUOUS
 62
     7
 10
51.138396840508101
 20
132.6814468784055
 30
0.0
 40
1.081776008888325
 50
186.4301020795061
 51
190.33915203672689
  0
ARC
  5
1FF
  8
DATA
  6
CONTINUOUS
 62
     7
 10
50.13268976928839
 20
132.49478992067739
 30
0.0
 40
0.0589817847855775
 50
187.2997512847308
 51
210.22160656762679
  0
ARC
  5
200
  8
DATA
  6
CONTINUOUS
 62
     7
 10
50.096124670308981
 20
132.47376621329201
 30
0.0
 40
0.016963029082495
 50
235.1886000453614
 51
252.39366429048081
  0
ARC
  5
201
  8
DATA
  6
CONTINUOUS
 62
     7
 10
50.100204905610319
 20
132.47691883204459
 30
0.0
 40
0.0219356032790708
 50
212.5965424638996
 51
231.13594034516879
  0
LINE
  5
202
  8
DATA
  6
CONTINUOUS
 62
     7
 10
50.438738103737712
 20
130.94559999965341
 30
0.0
 11
50.475310157236088
 21
130.94592770103219
 31
0.0
  0
LINE
  5
203
  8
DATA
  6
CONTINUOUS
 62
     7
 10
50.058119264338067
 20
125.6536100796534
 30
0.0
 11
50.058119264338067
 21
130.6935999996534
 31
0.0
  0
LINE
  5
204
  8
DATA
  6
CONTINUOUS
 62
     7
 10
50.090993773138052
 20
130.9456122972534
 30
0.0
 11
50.438736435537969
 21
130.9456122972534
 31
0.0
  0
LINE
  5
205
  8
DATA
  6
CONTINUOUS
 62
     7
 10
50.890632915537921
 20
130.6935999996534
 30
0.0
 11
50.890632915537921
 21
125.6536100796534
 31
0.0
  0
ARC
  5
206
  8
DATA
  6
CONTINUOUS
 62
     7
 10
50.485857965811071
 20
130.37334409804029
 30
0.0
 40
0.5726807476079893
 50
57.283075976847392
 51
91.055350806277929
  0
ARC
  5
207
  8
DATA
  6
CONTINUOUS
 62
     7
 10
50.667823539623527
 20
130.66727455012841
 30
0.0
 40
0.2271049418190925
 50
23.697342088061131
 51
55.827424471501061
  0
ARC
  5
208
  8
DATA
  6
CONTINUOUS
 62
     7
 10
50.711458867269108
 20
130.68604715841499
 30
0.0
 40
0.179604416468325
 50
7.110077107161545
 51
23.80821257402631
  0
ARC
  5
209
  8
DATA
  6
CONTINUOUS
 62
     7
 10
40.690266847000217
 20
130.04024284971001
 30
0.0
 40
10.221269172541991
 50
3.6649212670283808
 51
3.7473711894016528
  0
ARC
  5
20A
  8
DATA
  6
CONTINUOUS
 62
     7
 10
51.30628866292578
 20
130.72397146989309
 30
0.0
 40
1.2485409180212059
 50
174.5334884899857
 51
181.3938900208295
  0
ARC
  5
20B
  8
DATA
  6
CONTINUOUS
 62
     7
 10
51.138396840508101
 20
130.7217631983915
 30
0.0
 40
1.0817760088883861
 50
169.66084796327399
 51
173.5698979204937
  0
ARC
  5
20C
  8
DATA
  6
CONTINUOUS
 62
     7
 10
50.13268976928839
 20
130.9084201561196
 30
0.0
 40
0.058981784785544
 50
149.77839343237321
 51
172.70024871526911
  0
ARC
  5
20D
  8
DATA
  6
CONTINUOUS
 62
     7
 10
50.096124670308981
 20
130.92944386350501
 30
0.0
 40
0.0169630290825066
 50
107.6063357095337
 51
124.8113999546386
  0
ARC
  5
20E
  8
DATA
  6
CONTINUOUS
 62
     7
 10
50.100204905610319
 20
130.92629124475241
 30
0.0
 40
0.0219356032790313
 50
128.86405965480779
 51
147.4034575361004
  0
LINE
  5
20F
  8
DATA
  6
CONTINUOUS
 62
     7
 10
50.438738103737712
 20
125.4016100771436
 30
0.0
 11
50.475310157236088
 21
125.40128237576479
 31
0.0
  0
LINE
  5
210
  8
DATA
  6
CONTINUOUS
 62
     7
 10
50.090993773138052
 20
125.40159777954359
 30
0.0
 11
50.438736435537969
 21
125.40159777954359
 31
0.0
  0
ARC
  5
211
  8
DATA
  6
CONTINUOUS
 62
     7
 10
50.485857965811071
 20
125.97386597875671
 30
0.0
 40
0.5726807476080206
 50
268.94464919372223
 51
302.71692402315051
  0
ARC
  5
212
  8
DATA
  6
CONTINUOUS
 62
     7
 10
50.667823539623527
 20
125.6799355266686
 30
0.0
 40
0.2271049418190179
 50
304.172575528501
 51
336.30265791193068
  0
ARC
  5
213
  8
DATA
  6
CONTINUOUS
 62
     7
 10
50.711458867269108
 20
125.661162918382
 30
0.0
 40
0.1796044164683707
 50
336.19178742598422
 51
352.88992289283851
  0
ARC
  5
214
  8
DATA
  6
CONTINUOUS
 62
     7
 10
40.690266847000217
 20
126.306967227087
 30
0.0
 40
10.22126917254206
 50
356.25262881059842
 51
356.33507873297162
  0
ARC
  5
215
  8
DATA
  6
CONTINUOUS
 62
     7
 10
51.30628866292578
 20
125.6232386069039
 30
0.0
 40
1.2485409180211819
 50
178.60610997917109
 51
185.4665115100143
  0
ARC
  5
216
  8
DATA
  6
CONTINUOUS
 62
     7
 10
51.138396840508101
 20
125.6254468784055
 30
0.0
 40
1.0817760088883239
 50
186.43010207950539
 51
190.339152036727
  0
ARC
  5
217
  8
DATA
  6
CONTINUOUS
 62
     7
 10
50.13268976928839
 20
125.43878992067739
 30
0.0
 40
0.0589817847855775
 50
187.2997512847308
 51
210.2216065676387
  0
ARC
  5
218
  8
DATA
  6
CONTINUOUS
 62
     7
 10
50.096124670308981
 20
125.417766213292
 30
0.0
 40
0.0169630290825066
 50
235.1886000453888
 51
252.39366429048081
  0
ARC
  5
219
  8
DATA
  6
CONTINUOUS
 62
     7
 10
50.100204905610319
 20
125.42091883204461
 30
0.0
 40
0.0219356032790708
 50
212.5965424638996
 51
231.13594034516879
  0
LINE
  5
21A
  8
DATA
  6
CONTINUOUS
 62
     7
 10
81.615632825107596
 20
145.05759999965341
 30
0.0
 11
81.579060771609207
 21
145.05792770103221
 31
0.0
  0
LINE
  5
21B
  8
DATA
  6
CONTINUOUS
 62
     7
 10
81.628256870907322
 20
144.8055999996534
 30
0.0
 11
81.628256870907322
 21
139.76561007965341
 31
0.0
  0
LINE
  5
21C
  8
DATA
  6
CONTINUOUS
 62
     7
 10
81.996251664507355
 20
139.76561007965341
 30
0.0
 11
81.996251664507355
 21
144.8055999996534
 31
0.0
  0
LINE
  5
21D
  8
DATA
  6
CONTINUOUS
 62
     7
 10
81.963377155707249
 20
145.0576122972534
 30
0.0
 11
81.615634493307326
 21
145.0576122972534
 31
0.0
  0
LINE
  5
21E
  8
DATA
  6
CONTINUOUS
 62
     7
 10
81.163738013307366
 20
144.8055999996534
 30
0.0
 11
81.163738013307366
 21
139.76561007965341
 31
0.0
  0
ARC
  5
21F
  8
DATA
  6
CONTINUOUS
 62
     7
 10
81.877872378154535
 20
144.8087621813855
 30
0.0
 40
0.2488543035738669
 50
90.332394443311401
 51
157.16515808692341
  0
ARC
  5
220
  8
DATA
  6
CONTINUOUS
 62
     7
 10
81.878683511465326
 20
144.8073254962207
 30
0.0
 40
0.2501614454792021
 50
156.93399065050431
 51
174.03557696268459
  0
ARC
  5
221
  8
DATA
  6
CONTINUOUS
 62
     7
 10
81.860147349734262
 20
144.80596014101519
 30
0.0
 40
0.2318907584885331
 50
173.2241179860851
 51
180.0889840910155
  0
ARC
  5
222
  8
DATA
  6
CONTINUOUS
 62
     7
 10
81.568512963034223
 20
144.48534409804029
 30
0.0
 40
0.5726807476080241
 50
88.944649193722114
 51
122.716924023152
  0
ARC
  5
223
  8
DATA
  6
CONTINUOUS
 62
     7
 10
81.386547389221747
 20
144.77927455012841
 30
0.0
 40
0.2271049418190159
 50
124.1725755285002
 51
156.3026579119319
  0
ARC
  5
224
  8
DATA
  6
CONTINUOUS
 62
     7
 10
81.342912061576186
 20
144.79804715841499
 30
0.0
 40
0.1796044164682634
 50
156.1917874259691
 51
172.88992289283831
  0
ARC
  5
225
  8
DATA
  6
CONTINUOUS
 62
     7
 10
91.364104081845227
 20
144.15224284971001
 30
0.0
 40
10.2212691725422
 50
176.25262881059831
 51
176.33507873297151
  0
ARC
  5
226
  8
DATA
  6
CONTINUOUS
 62
     7
 10
80.748082265919507
 20
144.83597146989311
 30
0.0
 40
1.2485409180212961
 50
358.60610997917121
 51
5.4665115100149251
  0
ARC
  5
227
  8
DATA
  6
CONTINUOUS
 62
     7
 10
80.915974088337222
 20
144.83376319839141
 30
0.0
 40
1.081776008888325
 50
6.43010207950626
 51
10.339152036725981
  0
ARC
  5
228
  8
DATA
  6
CONTINUOUS
 62
     7
 10
81.921681159556925
 20
145.0204201561196
 30
0.0
 40
0.0589817847854594
 50
7.2997512847316877
 51
30.221606567604692
  0
ARC
  5
229
  8
DATA
  6
CONTINUOUS
 62
     7
 10
81.958246258536306
 20
145.04144386350501
 30
0.0
 40
0.0169630290825046
 50
55.18860004539858
 51
72.393664290480785
  0
ARC
  5
22A
  8
DATA
  6
CONTINUOUS
 62
     7
 10
81.95416602323499
 20
145.0382912447524
 30
0.0
 40
0.0219356032790679
 50
32.596542463904562
 51
51.135940345245928
  0
LINE
  5
22B
  8
DATA
  6
CONTINUOUS
 62
     7
 10
81.615632825107596
 20
139.5136100771436
 30
0.0
 11
81.579060771609207
 21
139.51328237576479
 31
0.0
  0
LINE
  5
22C
  8
DATA
  6
CONTINUOUS
 62
     7
 10
81.963377155707249
 20
139.5135977795436
 30
0.0
 11
81.615634493307326
 21
139.5135977795436
 31
0.0
  0
ARC
  5
22D
  8
DATA
  6
CONTINUOUS
 62
     7
 10
81.877872378154535
 20
139.76244789541141
 30
0.0
 40
0.2488543035737624
 50
202.83484191308369
 51
269.6676055566885
  0
ARC
  5
22E
  8
DATA
  6
CONTINUOUS
 62
     7
 10
81.878683511465326
 20
139.7638845805763
 30
0.0
 40
0.250161445479257
 50
185.9644230373153
 51
203.06600934949151
  0
ARC
  5
22F
  8
DATA
  6
CONTINUOUS
 62
     7
 10
81.860147349734262
 20
139.7652499357817
 30
0.0
 40
0.2318907584885215
 50
179.9110159089808
 51
186.7758820139114
  0
ARC
  5
230
  8
DATA
  6
CONTINUOUS
 62
     7
 10
81.568512963034223
 20
140.08586597875669
 30
0.0
 40
0.5726807476080046
 50
237.28307597684801
 51
271.05535080627777
  0
ARC
  5
231
  8
DATA
  6
CONTINUOUS
 62
     7
 10
81.386547389221747
 20
139.79193552666851
 30
0.0
 40
0.2271049418189852
 50
203.6973420880729
 51
235.8274244714957
  0
ARC
  5
232
  8
DATA
  6
CONTINUOUS
 62
     7
 10
81.342912061576186
 20
139.7731629183819
 30
0.0
 40
0.1796044164683214
 50
187.11007710716169
 51
203.80821257402681
  0
ARC
  5
233
  8
DATA
  6
CONTINUOUS
 62
     7
 10
91.364104081845227
 20
140.41896722708691
 30
0.0
 40
10.221269172542129
 50
183.6649212670284
 51
183.7473711894016
  0
ARC
  5
234
  8
DATA
  6
CONTINUOUS
 62
     7
 10
80.748082265919507
 20
139.73523860690389
 30
0.0
 40
1.2485409180212059
 50
354.53348848998581
 51
1.393890020829587
  0
ARC
  5
235
  8
DATA
  6
CONTINUOUS
 62
     7
 10
80.915974088337222
 20
139.73744687840551
 30
0.0
 40
1.0817760088882771
 50
349.6608479632722
 51
353.56989792049382
  0
ARC
  5
236
  8
DATA
  6
CONTINUOUS
 62
     7
 10
81.921681159556925
 20
139.5507899206774
 30
0.0
 40
0.0589817847855409
 50
329.77839343237139
 51
352.70024871526857
  0
ARC
  5
237
  8
DATA
  6
CONTINUOUS
 62
     7
 10
81.958246258536306
 20
139.52976621329191
 30
0.0
 40
0.0169630290825066
 50
287.60633570953371
 51
304.81139995462883
  0
ARC
  5
238
  8
DATA
  6
CONTINUOUS
 62
     7
 10
81.95416602323499
 20
139.5329188320446
 30
0.0
 40
0.021935603279018
 50
308.8640596548239
 51
327.40345753615799
  0
LINE
  5
239
  8
DATA
  6
CONTINUOUS
 62
     7
 10
81.615632825107596
 20
138.00159999965339
 30
0.0
 11
81.579060771609207
 21
138.0019277010322
 31
0.0
  0
LINE
  5
23A
  8
DATA
  6
CONTINUOUS
 62
     7
 10
81.996251664507355
 20
132.7096100796534
 30
0.0
 11
81.996251664507355
 21
137.74959999965341
 31
0.0
  0
LINE
  5
23B
  8
DATA
  6
CONTINUOUS
 62
     7
 10
81.963377155707249
 20
138.00161229725339
 30
0.0
 11
81.615634493307326
 21
138.00161229725339
 31
0.0
  0
LINE
  5
23C
  8
DATA
  6
CONTINUOUS
 62
     7
 10
81.163738013307366
 20
137.74959999965341
 30
0.0
 11
81.163738013307366
 21
132.7096100796534
 31
0.0
  0
ARC
  5
23D
  8
DATA
  6
CONTINUOUS
 62
     7
 10
81.568512963034223
 20
137.4293440980403
 30
0.0
 40
0.5726807476080241
 50
88.944649193722114
 51
122.716924023152
  0
ARC
  5
23E
  8
DATA
  6
CONTINUOUS
 62
     7
 10
81.386547389221747
 20
137.72327455012839
 30
0.0
 40
0.2271049418190276
 50
124.1725755284982
 51
156.3026579119352
  0
ARC
  5
23F
  8
DATA
  6
CONTINUOUS
 62
     7
 10
81.342912061576186
 20
137.74204715841501
 30
0.0
 40
0.1796044164682634
 50
156.1917874259691
 51
172.88992289283831
  0
ARC
  5
240
  8
DATA
  6
CONTINUOUS
 62
     7
 10
91.364104081845227
 20
137.09624284970999
 30
0.0
 40
10.2212691725422
 50
176.2526288105984
 51
176.33507873297151
  0
ARC
  5
241
  8
DATA
  6
CONTINUOUS
 62
     7
 10
80.748082265919507
 20
137.7799714698931
 30
0.0
 40
1.2485409180212961
 50
358.60610997917053
 51
5.4665115100136168
  0
ARC
  5
242
  8
DATA
  6
CONTINUOUS
 62
     7
 10
80.915974088337222
 20
137.77776319839151
 30
0.0
 40
1.0817760088883239
 50
6.430102079505513
 51
10.33915203672672
  0
ARC
  5
243
  8
DATA
  6
CONTINUOUS
 62
     7
 10
81.921681159556925
 20
137.9644201561195
 30
0.0
 40
0.0589817847854612
 50
7.2997512847453789
 51
30.221606567616629
  0
ARC
  5
244
  8
DATA
  6
CONTINUOUS
 62
     7
 10
81.958246258536306
 20
137.985443863505
 30
0.0
 40
0.0169630290825046
 50
55.18860004539858
 51
72.393664290480785
  0
ARC
  5
245
  8
DATA
  6
CONTINUOUS
 62
     7
 10
81.95416602323499
 20
137.9822912447523
 30
0.0
 40
0.0219356032790679
 50
32.596542463904562
 51
51.13594034522265
  0
LINE
  5
246
  8
DATA
  6
CONTINUOUS
 62
     7
 10
81.615632825107596
 20
132.45761007714361
 30
0.0
 11
81.579060771609207
 21
132.45728237576469
 31
0.0
  0
LINE
  5
247
  8
DATA
  6
CONTINUOUS
 62
     7
 10
81.963377155707249
 20
132.45759777954359
 30
0.0
 11
81.615634493307326
 21
132.45759777954359
 31
0.0
  0
ARC
  5
248
  8
DATA
  6
CONTINUOUS
 62
     7
 10
81.568512963034223
 20
133.0298659787567
 30
0.0
 40
0.5726807476079927
 50
237.28307597684719
 51
271.05535080627789
  0
ARC
  5
249
  8
DATA
  6
CONTINUOUS
 62
     7
 10
81.386547389221747
 20
132.7359355266685
 30
0.0
 40
0.2271049418189837
 50
203.69734208807219
 51
235.82742447149519
  0
ARC
  5
24A
  8
DATA
  6
CONTINUOUS
 62
     7
 10
81.342912061576186
 20
132.717162918382
 30
0.0
 40
0.1796044164683214
 50
187.11007710716169
 51
203.8082125740257
  0
ARC
  5
24B
  8
DATA
  6
CONTINUOUS
 62
     7
 10
91.364104081845227
 20
133.36296722708701
 30
0.0
 40
10.221269172542129
 50
183.6649212670284
 51
183.7473711894016
  0
ARC
  5
24C
  8
DATA
  6
CONTINUOUS
 62
     7
 10
80.748082265919507
 20
132.67923860690391
 30
0.0
 40
1.2485409180212059
 50
354.53348848998598
 51
1.3938900208296441
  0
ARC
  5
24D
  8
DATA
  6
CONTINUOUS
 62
     7
 10
80.915974088337222
 20
132.6814468784055
 30
0.0
 40
1.0817760088882771
 50
349.66084796327237
 51
353.56989792049387
  0
ARC
  5
24E
  8
DATA
  6
CONTINUOUS
 62
     7
 10
81.921681159556925
 20
132.49478992067739
 30
0.0
 40
0.0589817847855409
 50
329.77839343237139
 51
352.70024871526857
  0
ARC
  5
24F
  8
DATA
  6
CONTINUOUS
 62
     7
 10
81.958246258536306
 20
132.47376621329201
 30
0.0
 40
0.0169630290825066
 50
287.60633570953371
 51
304.81139995462883
  0
ARC
  5
250
  8
DATA
  6
CONTINUOUS
 62
     7
 10
81.95416602323499
 20
132.47691883204459
 30
0.0
 40
0.021935603279018
 50
308.8640596548239
 51
327.40345753615799
  0
LINE
  5
251
  8
DATA
  6
CONTINUOUS
 62
     7
 10
81.615632825107596
 20
130.94559999965341
 30
0.0
 11
81.579060771609207
 21
130.94592770103219
 31
0.0
  0
LINE
  5
252
  8
DATA
  6
CONTINUOUS
 62
     7
 10
81.996251664507355
 20
125.6536100796534
 30
0.0
 11
81.996251664507355
 21
130.6935999996534
 31
0.0
  0
LINE
  5
253
  8
DATA
  6
CONTINUOUS
 62
     7
 10
81.963377155707249
 20
130.9456122972534
 30
0.0
 11
81.615634493307326
 21
130.9456122972534
 31
0.0
  0
LINE
  5
254
  8
DATA
  6
CONTINUOUS
 62
     7
 10
81.163738013307366
 20
130.6935999996534
 30
0.0
 11
81.163738013307366
 21
125.6536100796534
 31
0.0
  0
ARC
  5
255
  8
DATA
  6
CONTINUOUS
 62
     7
 10
81.568512963034223
 20
130.37334409804029
 30
0.0
 40
0.5726807476080223
 50
88.944649193722114
 51
122.7169240231529
  0
ARC
  5
256
  8
DATA
  6
CONTINUOUS
 62
     7
 10
81.386547389221747
 20
130.66727455012841
 30
0.0
 40
0.2271049418190159
 50
124.1725755285002
 51
156.3026579119352
  0
ARC
  5
257
  8
DATA
  6
CONTINUOUS
 62
     7
 10
81.342912061576186
 20
130.68604715841499
 30
0.0
 40
0.1796044164682634
 50
156.1917874259691
 51
172.88992289283831
  0
ARC
  5
258
  8
DATA
  6
CONTINUOUS
 62
     7
 10
91.364104081845227
 20
130.04024284971001
 30
0.0
 40
10.2212691725422
 50
176.2526288105984
 51
176.33507873297171
  0
ARC
  5
259
  8
DATA
  6
CONTINUOUS
 62
     7
 10
80.748082265919507
 20
130.72397146989309
 30
0.0
 40
1.2485409180212961
 50
358.60610997917053
 51
5.4665115100142989
  0
ARC
  5
25A
  8
DATA
  6
CONTINUOUS
 62
     7
 10
80.915974088337222
 20
130.7217631983915
 30
0.0
 40
1.0817760088883239
 50
6.430102079505513
 51
10.339152036725981
  0
ARC
  5
25B
  8
DATA
  6
CONTINUOUS
 62
     7
 10
81.921681159556925
 20
130.9084201561196
 30
0.0
 40
0.0589817847854612
 50
7.2997512847453789
 51
30.221606567616629
  0
ARC
  5
25C
  8
DATA
  6
CONTINUOUS
 62
     7
 10
81.958246258536306
 20
130.92944386350501
 30
0.0
 40
0.0169630290825046
 50
55.18860004539858
 51
72.393664290480785
  0
ARC
  5
25D
  8
DATA
  6
CONTINUOUS
 62
     7
 10
81.95416602323499
 20
130.92629124475241
 30
0.0
 40
0.0219356032790679
 50
32.596542463904562
 51
51.13594034522265
  0
LINE
  5
25E
  8
DATA
  6
CONTINUOUS
 62
     7
 10
81.615632825107596
 20
125.4016100771436
 30
0.0
 11
81.579060771609207
 21
125.40128237576479
 31
0.0
  0
LINE
  5
25F
  8
DATA
  6
CONTINUOUS
 62
     7
 10
81.963377155707249
 20
125.40159777954359
 30
0.0
 11
81.615634493307326
 21
125.40159777954359
 31
0.0
  0
ARC
  5
260
  8
DATA
  6
CONTINUOUS
 62
     7
 10
81.568512963034223
 20
125.97386597875671
 30
0.0
 40
0.5726807476079898
 50
237.2830759768469
 51
271.05535080627789
  0
ARC
  5
261
  8
DATA
  6
CONTINUOUS
 62
     7
 10
81.386547389221747
 20
125.6799355266686
 30
0.0
 40
0.2271049418189852
 50
203.6973420880729
 51
235.8274244714957
  0
ARC
  5
262
  8
DATA
  6
CONTINUOUS
 62
     7
 10
81.342912061576186
 20
125.661162918382
 30
0.0
 40
0.1796044164683214
 50
187.11007710716169
 51
203.80821257402681
  0
ARC
  5
263
  8
DATA
  6
CONTINUOUS
 62
     7
 10
91.364104081845227
 20
126.306967227087
 30
0.0
 40
10.221269172542129
 50
183.6649212670284
 51
183.7473711894016
  0
ARC
  5
264
  8
DATA
  6
CONTINUOUS
 62
     7
 10
80.748082265919507
 20
125.6232386069039
 30
0.0
 40
1.2485409180212059
 50
354.53348848998581
 51
1.393890020828962
  0
ARC
  5
265
  8
DATA
  6
CONTINUOUS
 62
     7
 10
80.915974088337222
 20
125.6254468784055
 30
0.0
 40
1.0817760088882751
 50
349.66084796327289
 51
353.5698979204945
  0
ARC
  5
266
  8
DATA
  6
CONTINUOUS
 62
     7
 10
81.921681159556925
 20
125.43878992067739
 30
0.0
 40
0.0589817847855409
 50
329.77839343237139
 51
352.70024871526857
  0
ARC
  5
267
  8
DATA
  6
CONTINUOUS
 62
     7
 10
81.958246258536306
 20
125.417766213292
 30
0.0
 40
0.0169630290825066
 50
287.60633570953371
 51
304.81139995462883
  0
ARC
  5
268
  8
DATA
  6
CONTINUOUS
 62
     7
 10
81.95416602323499
 20
125.42091883204461
 30
0.0
 40
0.0219356032790291
 50
308.86405965480071
 51
327.40345753615799
  0
LINE
  5
269
  8
DATA
  6
CONTINUOUS
 62
     7
 10
58.766679238706878
 20
73.789208064202839
 30
0.0
 11
63.977195643936312
 21
73.789208064202839
 31
0.0
  0
LINE
  5
26A
  8
DATA
  6
CONTINUOUS
 62
     7
 10
68.077195643423764
 20
73.789208064202839
 30
0.0
 11
73.281901414707221
 21
73.789208064202839
 31
0.0
  0
LINE
  5
26B
  8
DATA
  6
CONTINUOUS
 62
     7
 10
58.766679238706878
 20
56.250000000203109
 30
0.0
 11
73.281901414707221
 21
56.250000000203109
 31
0.0
  0
LINE
  5
26C
  8
DATA
  6
CONTINUOUS
 62
     7
 10
100.00000000022681
 20
103.51473048600469
 30
0.0
 11
100.00000000022681
 21
146.9860709244046
 31
0.0
  0
LINE
  5
26D
  8
DATA
  6
CONTINUOUS
 62
     7
 10
117.5391965730267
 20
146.9860709244046
 30
0.0
 11
117.5391965730267
 21
103.51584338443671
 31
0.0
  0
LINE
  5
26E
  8
DATA
  6
CONTINUOUS
 62
     7
 10
58.769584555679998
 20
186.28921612755931
 30
0.0
 11
73.257630938110196
 21
186.28921612755931
 31
0.0
  0
LINE
  5
26F
  8
DATA
  6
CONTINUOUS
 62
     7
 10
58.769584555679998
 20
168.74999999955909
 30
0.0
 11
63.977195643680041
 21
168.74999999955909
 31
0.0
  0
LINE
  5
270
  8
DATA
  6
CONTINUOUS
 62
     7
 10
68.077195643680042
 20
168.74999999955909
 30
0.0
 11
73.284806731680092
 21
168.74999999955909
 31
0.0
  0
LINE
  5
271
  8
DATA
  6
CONTINUOUS
 62
     7
 10
131.68873810301989
 20
145.05552338614379
 30
0.0
 11
131.7253101565183
 21
145.0558510875226
 31
0.0
  0
LINE
  5
272
  8
DATA
  6
CONTINUOUS
 62
     7
 10
131.30811926362031
 20
139.7635334661438
 30
0.0
 11
131.30811926362031
 21
144.80352338614381
 31
0.0
  0
LINE
  5
273
  8
DATA
  6
CONTINUOUS
 62
     7
 10
131.34099377242029
 20
145.05553568374381
 30
0.0
 11
131.6887364348203
 21
145.05553568374381
 31
0.0
  0
LINE
  5
274
  8
DATA
  6
CONTINUOUS
 62
     7
 10
132.14063291482029
 20
144.80352338614381
 30
0.0
 11
132.14063291482029
 21
139.7635334661438
 31
0.0
  0
ARC
  5
275
  8
DATA
  6
CONTINUOUS
 62
     7
 10
131.7358579650934
 20
144.4832674845307
 30
0.0
 40
0.5726807476079451
 50
57.283075976857234
 51
91.055350806289269
  0
ARC
  5
276
  8
DATA
  6
CONTINUOUS
 62
     7
 10
131.91782353890591
 20
144.77719793661879
 30
0.0
 40
0.2271049418189941
 50
23.697342088075938
 51
55.8274244715248
  0
ARC
  5
277
  8
DATA
  6
CONTINUOUS
 62
     7
 10
131.96145886655151
 20
144.7959705449054
 30
0.0
 40
0.1796044164682104
 50
7.110077107161537
 51
23.80821257402631
  0
ARC
  5
278
  8
DATA
  6
CONTINUOUS
 62
     7
 10
121.9402668462822
 20
144.15016623620039
 30
0.0
 40
10.221269172542341
 50
3.664921267028368
 51
3.7473711894015982
  0
ARC
  5
279
  8
DATA
  6
CONTINUOUS
 62
     7
 10
132.55628866220809
 20
144.83389485638341
 30
0.0
 40
1.248540918021213
 50
174.5334884899857
 51
181.3938900208295
  0
ARC
  5
27A
  8
DATA
  6
CONTINUOUS
 62
     7
 10
132.38839683979049
 20
144.83168658488191
 30
0.0
 40
1.0817760088883941
 50
169.66084796327411
 51
173.56989792049441
  0
ARC
  5
27B
  8
DATA
  6
CONTINUOUS
 62
     7
 10
131.38268976857071
 20
145.01834354261001
 30
0.0
 40
0.0589817847855368
 50
149.77839343238509
 51
172.70024871528281
  0
ARC
  5
27C
  8
DATA
  6
CONTINUOUS
 62
     7
 10
131.34612466959121
 20
145.03936724999539
 30
0.0
 40
0.0169630290825066
 50
107.6063357095337
 51
124.8113999546386
  0
ARC
  5
27D
  8
DATA
  6
CONTINUOUS
 62
     7
 10
131.35020490489259
 20
145.03621463124281
 30
0.0
 40
0.0219356032790203
 50
128.86405965483121
 51
147.40345753597171
  0
LINE
  5
27E
  8
DATA
  6
CONTINUOUS
 62
     7
 10
131.68873810301989
 20
139.51153346363401
 30
0.0
 11
131.7253101565183
 21
139.5112057622552
 31
0.0
  0
LINE
  5
27F
  8
DATA
  6
CONTINUOUS
 62
     7
 10
131.34099377242029
 20
139.51152116603399
 30
0.0
 11
131.6887364348203
 21
139.51152116603399
 31
0.0
  0
ARC
  5
280
  8
DATA
  6
CONTINUOUS
 62
     7
 10
131.7358579650934
 20
140.0837893652471
 30
0.0
 40
0.5726807476080263
 50
268.9446491937108
 51
302.71692402315091
  0
ARC
  5
281
  8
DATA
  6
CONTINUOUS
 62
     7
 10
131.91782353890591
 20
139.78985891315889
 30
0.0
 40
0.2271049418189658
 50
304.17257552847519
 51
336.30265791192733
  0
ARC
  5
282
  8
DATA
  6
CONTINUOUS
 62
     7
 10
131.96145886655151
 20
139.7710863048724
 30
0.0
 40
0.1796044164682666
 50
336.19178742596949
 51
352.88992289283851
  0
ARC
  5
283
  8
DATA
  6
CONTINUOUS
 62
     7
 10
121.9402668462822
 20
140.41689061357741
 30
0.0
 40
10.221269172542289
 50
356.25262881059848
 51
356.33507873297179
  0
ARC
  5
284
  8
DATA
  6
CONTINUOUS
 62
     7
 10
132.55628866220809
 20
139.7331619933943
 30
0.0
 40
1.248540918021303
 50
178.6061099791705
 51
185.4665115100137
  0
ARC
  5
285
  8
DATA
  6
CONTINUOUS
 62
     7
 10
132.38839683979049
 20
139.73537026489589
 30
0.0
 40
1.081776008888331
 50
186.43010207950539
 51
190.33915203672581
  0
ARC
  5
286
  8
DATA
  6
CONTINUOUS
 62
     7
 10
131.38268976857071
 20
139.54871330716779
 30
0.0
 40
0.0589817847855775
 50
187.2997512847308
 51
210.22160656757109
  0
ARC
  5
287
  8
DATA
  6
CONTINUOUS
 62
     7
 10
131.34612466959121
 20
139.52768959978241
 30
0.0
 40
0.016963029082495
 50
235.1886000453614
 51
252.39366429046621
  0
ARC
  5
288
  8
DATA
  6
CONTINUOUS
 62
     7
 10
131.35020490489259
 20
139.53084221853501
 30
0.0
 40
0.0219356032789674
 50
212.5965424640282
 51
231.1359403451456
  0
LINE
  5
289
  8
DATA
  6
CONTINUOUS
 62
     7
 10
131.68873810301989
 20
137.99952338614381
 30
0.0
 11
131.7253101565183
 21
137.99985108752259
 31
0.0
  0
LINE
  5
28A
  8
DATA
  6
CONTINUOUS
 62
     7
 10
131.30811926362031
 20
132.70753346614379
 30
0.0
 11
131.30811926362031
 21
137.7475233861438
 31
0.0
  0
LINE
  5
28B
  8
DATA
  6
CONTINUOUS
 62
     7
 10
131.34099377242029
 20
137.9995356837438
 30
0.0
 11
131.6887364348203
 21
137.9995356837438
 31
0.0
  0
LINE
  5
28C
  8
DATA
  6
CONTINUOUS
 62
     7
 10
132.14063291482029
 20
137.7475233861438
 30
0.0
 11
132.14063291482029
 21
132.70753346614379
 31
0.0
  0
ARC
  5
28D
  8
DATA
  6
CONTINUOUS
 62
     7
 10
131.7358579650934
 20
137.42726748453069
 30
0.0
 40
0.5726807476079451
 50
57.283075976857234
 51
91.055350806289269
  0
ARC
  5
28E
  8
DATA
  6
CONTINUOUS
 62
     7
 10
131.91782353890591
 20
137.72119793661881
 30
0.0
 40
0.2271049418189884
 50
23.697342088072659
 51
55.8274244715248
  0
ARC
  5
28F
  8
DATA
  6
CONTINUOUS
 62
     7
 10
131.96145886655151
 20
137.73997054490539
 30
0.0
 40
0.1796044164682121
 50
7.1100771071660338
 51
23.80821257403046
  0
ARC
  5
290
  8
DATA
  6
CONTINUOUS
 62
     7
 10
121.9402668462822
 20
137.09416623620041
 30
0.0
 40
10.221269172542341
 50
3.6649212670283471
 51
3.7473711894015782
  0
ARC
  5
291
  8
DATA
  6
CONTINUOUS
 62
     7
 10
132.55628866220809
 20
137.7778948563834
 30
0.0
 40
1.248540918021213
 50
174.5334884899857
 51
181.3938900208295
  0
ARC
  5
292
  8
DATA
  6
CONTINUOUS
 62
     7
 10
132.38839683979049
 20
137.77568658488181
 30
0.0
 40
1.0817760088883941
 50
169.66084796327411
 51
173.56989792049441
  0
ARC
  5
293
  8
DATA
  6
CONTINUOUS
 62
     7
 10
131.38268976857071
 20
137.96234354260989
 30
0.0
 40
0.058981784785544
 50
149.77839343237321
 51
172.70024871526911
  0
ARC
  5
294
  8
DATA
  6
CONTINUOUS
 62
     7
 10
131.34612466959121
 20
137.98336724999541
 30
0.0
 40
0.0169630290825202
 50
107.6063357095192
 51
124.8113999546112
  0
ARC
  5
295
  8
DATA
  6
CONTINUOUS
 62
     7
 10
131.35020490489259
 20
137.98021463124269
 30
0.0
 40
0.0219356032790313
 50
128.86405965480779
 51
147.4034575359091
  0
LINE
  5
296
  8
DATA
  6
CONTINUOUS
 62
     7
 10
131.68873810301989
 20
132.455533463634
 30
0.0
 11
131.7253101565183
 21
132.45520576225519
 31
0.0
  0
LINE
  5
297
  8
DATA
  6
CONTINUOUS
 62
     7
 10
131.34099377242029
 20
132.455521166034
 30
0.0
 11
131.6887364348203
 21
132.455521166034
 31
0.0
  0
ARC
  5
298
  8
DATA
  6
CONTINUOUS
 62
     7
 10
131.7358579650934
 20
133.02778936524709
 30
0.0
 40
0.5726807476080263
 50
268.9446491937108
 51
302.71692402315091
  0
ARC
  5
299
  8
DATA
  6
CONTINUOUS
 62
     7
 10
131.91782353890591
 20
132.73385891315891
 30
0.0
 40
0.2271049418189628
 50
304.1725755284757
 51
336.30265791192818
  0
ARC
  5
29A
  8
DATA
  6
CONTINUOUS
 62
     7
 10
131.96145886655151
 20
132.71508630487239
 30
0.0
 40
0.1796044164682652
 50
336.19178742597057
 51
352.88992289283402
  0
ARC
  5
29B
  8
DATA
  6
CONTINUOUS
 62
     7
 10
121.9402668462822
 20
133.36089061357731
 30
0.0
 40
10.221269172542289
 50
356.25262881059848
 51
356.33507873297179
  0
ARC
  5
29C
  8
DATA
  6
CONTINUOUS
 62
     7
 10
132.55628866220809
 20
132.67716199339429
 30
0.0
 40
1.248540918021303
 50
178.6061099791705
 51
185.46651151001359
  0
ARC
  5
29D
  8
DATA
  6
CONTINUOUS
 62
     7
 10
132.38839683979049
 20
132.67937026489591
 30
0.0
 40
1.0817760088883319
 50
186.4301020795061
 51
190.33915203672569
  0
ARC
  5
29E
  8
DATA
  6
CONTINUOUS
 62
     7
 10
131.38268976857071
 20
132.4927133071678
 30
0.0
 40
0.0589817847855775
 50
187.2997512847308
 51
210.22160656757109
  0
ARC
  5
29F
  8
DATA
  6
CONTINUOUS
 62
     7
 10
131.34612466959121
 20
132.47168959978231
 30
0.0
 40
0.016963029082495
 50
235.1886000453614
 51
252.39366429048081
  0
ARC
  5
2A0
  8
DATA
  6
CONTINUOUS
 62
     7
 10
131.35020490489259
 20
132.474842218535
 30
0.0
 40
0.0219356032789674
 50
212.5965424640282
 51
231.1359403451456
  0
LINE
  5
2A1
  8
DATA
  6
CONTINUOUS
 62
     7
 10
131.68873810301989
 20
130.9435233861438
 30
0.0
 11
131.7253101565183
 21
130.9438510875226
 31
0.0
  0
LINE
  5
2A2
  8
DATA
  6
CONTINUOUS
 62
     7
 10
131.30811926362031
 20
125.6515334661438
 30
0.0
 11
131.30811926362031
 21
130.69152338614381
 31
0.0
  0
LINE
  5
2A3
  8
DATA
  6
CONTINUOUS
 62
     7
 10
131.34099377242029
 20
130.94353568374379
 30
0.0
 11
131.6887364348203
 21
130.94353568374379
 31
0.0
  0
LINE
  5
2A4
  8
DATA
  6
CONTINUOUS
 62
     7
 10
132.14063291482029
 20
130.69152338614381
 30
0.0
 11
132.14063291482029
 21
125.6515334661438
 31
0.0
  0
ARC
  5
2A5
  8
DATA
  6
CONTINUOUS
 62
     7
 10
131.7358579650934
 20
130.3712674845307
 30
0.0
 40
0.5726807476079437
 50
57.283075976857141
 51
91.055350806289354
  0
ARC
  5
2A6
  8
DATA
  6
CONTINUOUS
 62
     7
 10
131.91782353890591
 20
130.66519793661891
 30
0.0
 40
0.2271049418189884
 50
23.697342088072659
 51
55.8274244715248
  0
ARC
  5
2A7
  8
DATA
  6
CONTINUOUS
 62
     7
 10
131.96145886655151
 20
130.68397054490529
 30
0.0
 40
0.1796044164682121
 50
7.1100771071660338
 51
23.80821257402631
  0
ARC
  5
2A8
  8
DATA
  6
CONTINUOUS
 62
     7
 10
121.9402668462822
 20
130.0381662362004
 30
0.0
 40
10.221269172542341
 50
3.6649212670283382
 51
3.747371189401568
  0
ARC
  5
2A9
  8
DATA
  6
CONTINUOUS
 62
     7
 10
132.55628866220809
 20
130.7218948563835
 30
0.0
 40
1.2485409180212119
 50
174.53348848998641
 51
181.3938900208295
  0
ARC
  5
2AA
  8
DATA
  6
CONTINUOUS
 62
     7
 10
132.38839683979049
 20
130.71968658488191
 30
0.0
 40
1.0817760088883941
 50
169.66084796327411
 51
173.56989792049441
  0
ARC
  5
2AB
  8
DATA
  6
CONTINUOUS
 62
     7
 10
131.38268976857071
 20
130.9063435426099
 30
0.0
 40
0.058981784785544
 50
149.77839343237321
 51
172.70024871526911
  0
ARC
  5
2AC
  8
DATA
  6
CONTINUOUS
 62
     7
 10
131.34612466959121
 20
130.9273672499954
 30
0.0
 40
0.0169630290825202
 50
107.6063357095192
 51
124.8113999546386
  0
ARC
  5
2AD
  8
DATA
  6
CONTINUOUS
 62
     7
 10
131.35020490489259
 20
130.92421463124271
 30
0.0
 40
0.0219356032790313
 50
128.86405965480779
 51
147.4034575359405
  0
LINE
  5
2AE
  8
DATA
  6
CONTINUOUS
 62
     7
 10
131.68873810301989
 20
125.399533463634
 30
0.0
 11
131.7253101565183
 21
125.39920576225521
 31
0.0
  0
LINE
  5
2AF
  8
DATA
  6
CONTINUOUS
 62
     7
 10
131.34099377242029
 20
125.39952116603401
 30
0.0
 11
131.6887364348203
 21
125.39952116603401
 31
0.0
  0
ARC
  5
2B0
  8
DATA
  6
CONTINUOUS
 62
     7
 10
131.7358579650934
 20
125.9717893652471
 30
0.0
 40
0.5726807476080085
 50
268.9446491937108
 51
302.71692402315182
  0
ARC
  5
2B1
  8
DATA
  6
CONTINUOUS
 62
     7
 10
131.91782353890591
 20
125.6778589131589
 30
0.0
 40
0.2271049418189539
 50
304.17257552847718
 51
336.30265791193068
  0
ARC
  5
2B2
  8
DATA
  6
CONTINUOUS
 62
     7
 10
131.96145886655151
 20
125.6590863048724
 30
0.0
 40
0.1796044164682666
 50
336.19178742596949
 51
352.88992289283402
  0
ARC
  5
2B3
  8
DATA
  6
CONTINUOUS
 62
     7
 10
121.9402668462822
 20
126.3048906135774
 30
0.0
 40
10.221269172542289
 50
356.25262881059848
 51
356.33507873297179
  0
ARC
  5
2B4
  8
DATA
  6
CONTINUOUS
 62
     7
 10
132.55628866220809
 20
125.6211619933943
 30
0.0
 40
1.248540918021303
 50
178.6061099791705
 51
185.4665115100137
  0
ARC
  5
2B5
  8
DATA
  6
CONTINUOUS
 62
     7
 10
132.38839683979049
 20
125.6233702648959
 30
0.0
 40
1.081776008888333
 50
186.43010207950621
 51
190.33915203672581
  0
ARC
  5
2B6
  8
DATA
  6
CONTINUOUS
 62
     7
 10
131.38268976857071
 20
125.43671330716781
 30
0.0
 40
0.0589817847855775
 50
187.2997512847308
 51
210.22160656757109
  0
ARC
  5
2B7
  8
DATA
  6
CONTINUOUS
 62
     7
 10
131.34612466959121
 20
125.4156895997824
 30
0.0
 40
0.016963029082495
 50
235.1886000453614
 51
252.39366429048081
  0
ARC
  5
2B8
  8
DATA
  6
CONTINUOUS
 62
     7
 10
131.35020490489259
 20
125.418842218535
 30
0.0
 40
0.0219356032789751
 50
212.5965424640595
 51
231.13594034516879
  0
LINE
  5
2B9
  8
DATA
  6
CONTINUOUS
 62
     7
 10
162.86563282438991
 20
145.05552338614379
 30
0.0
 11
162.8290607708914
 21
145.0558510875226
 31
0.0
  0
LINE
  5
2BA
  8
DATA
  6
CONTINUOUS
 62
     7
 10
163.24625166378951
 20
139.7635334661438
 30
0.0
 11
163.24625166378951
 21
144.80352338614381
 31
0.0
  0
LINE
  5
2BB
  8
DATA
  6
CONTINUOUS
 62
     7
 10
163.2133771549895
 20
145.05553568374381
 30
0.0
 11
162.86563449258949
 21
145.05553568374381
 31
0.0
  0
LINE
  5
2BC
  8
DATA
  6
CONTINUOUS
 62
     7
 10
162.4137380125895
 20
144.80352338614381
 30
0.0
 11
162.4137380125895
 21
139.7635334661438
 31
0.0
  0
ARC
  5
2BD
  8
DATA
  6
CONTINUOUS
 62
     7
 10
162.81851296231639
 20
144.4832674845307
 30
0.0
 40
0.5726807476080241
 50
88.944649193722114
 51
122.7169240231523
  0
ARC
  5
2BE
  8
DATA
  6
CONTINUOUS
 62
     7
 10
162.63654738850391
 20
144.77719793661879
 30
0.0
 40
0.2271049418190296
 50
124.1725755284989
 51
156.30265791192409
  0
ARC
  5
2BF
  8
DATA
  6
CONTINUOUS
 62
     7
 10
162.59291206085831
 20
144.7959705449054
 30
0.0
 40
0.1796044164682666
 50
156.19178742596949
 51
172.88992289283851
  0
ARC
  5
2C0
  8
DATA
  6
CONTINUOUS
 62
     7
 10
172.61410408112741
 20
144.15016623620039
 30
0.0
 40
10.22126917254222
 50
176.2526288105984
 51
176.3350787329716
  0
ARC
  5
2C1
  8
DATA
  6
CONTINUOUS
 62
     7
 10
161.99808226520179
 20
144.83389485638341
 30
0.0
 40
1.2485409180211891
 50
358.60610997917041
 51
5.4665115100142421
  0
ARC
  5
2C2
  8
DATA
  6
CONTINUOUS
 62
     7
 10
162.16597408761939
 20
144.83168658488191
 30
0.0
 40
1.0817760088884461
 50
6.430102079505545
 51
10.33915203672592
  0
ARC
  5
2C3
  8
DATA
  6
CONTINUOUS
 62
     7
 10
163.17168115883919
 20
145.01834354261001
 30
0.0
 40
0.058981784785463
 50
7.2997512847312507
 51
30.221606567658551
  0
ARC
  5
2C4
  8
DATA
  6
CONTINUOUS
 62
     7
 10
163.20824625781839
 20
145.03936724999539
 30
0.0
 40
0.0169630290825599
 50
55.188600045046073
 51
72.393664290100276
  0
ARC
  5
2C5
  8
DATA
  6
CONTINUOUS
 62
     7
 10
163.2041660225172
 20
145.03621463124281
 30
0.0
 40
0.0219356032789674
 50
32.596542464028261
 51
51.135940345215431
  0
LINE
  5
2C6
  8
DATA
  6
CONTINUOUS
 62
     7
 10
162.86563282438991
 20
139.51153346363401
 30
0.0
 11
162.8290607708914
 21
139.5112057622552
 31
0.0
  0
LINE
  5
2C7
  8
DATA
  6
CONTINUOUS
 62
     7
 10
163.2133771549895
 20
139.51152116603399
 30
0.0
 11
162.86563449258949
 21
139.51152116603399
 31
0.0
  0
ARC
  5
2C8
  8
DATA
  6
CONTINUOUS
 62
     7
 10
162.81851296231639
 20
140.0837893652471
 30
0.0
 40
0.5726807476080066
 50
237.28307597684761
 51
271.05535080627777
  0
ARC
  5
2C9
  8
DATA
  6
CONTINUOUS
 62
     7
 10
162.63654738850391
 20
139.78985891315889
 30
0.0
 40
0.2271049418189941
 50
203.69734208807591
 51
235.8274244714971
  0
ARC
  5
2CA
  8
DATA
  6
CONTINUOUS
 62
     7
 10
162.59291206085831
 20
139.7710863048724
 30
0.0
 40
0.1796044164682104
 50
187.11007710716149
 51
203.80821257402641
  0
ARC
  5
2CB
  8
DATA
  6
CONTINUOUS
 62
     7
 10
172.61410408112741
 20
140.41689061357741
 30
0.0
 40
10.221269172542261
 50
183.66492126702829
 51
183.74737118940149
  0
ARC
  5
2CC
  8
DATA
  6
CONTINUOUS
 62
     7
 10
161.99808226520179
 20
139.7331619933943
 30
0.0
 40
1.2485409180212119
 50
354.53348848998638
 51
1.3938900208296441
  0
ARC
  5
2CD
  8
DATA
  6
CONTINUOUS
 62
     7
 10
162.16597408761939
 20
139.73537026489589
 30
0.0
 40
1.0817760088883961
 50
349.6608479632734
 51
353.56989792049461
  0
ARC
  5
2CE
  8
DATA
  6
CONTINUOUS
 62
     7
 10
163.17168115883919
 20
139.54871330716779
 30
0.0
 40
0.0589817847854386
 50
329.77839343232949
 51
352.7002487152551
  0
ARC
  5
2CF
  8
DATA
  6
CONTINUOUS
 62
     7
 10
163.20824625781839
 20
139.52768959978241
 30
0.0
 40
0.016963029082541
 50
287.60633570989972
 51
304.8113999549812
  0
ARC
  5
2D0
  8
DATA
  6
CONTINUOUS
 62
     7
 10
163.2041660225172
 20
139.53084221853501
 30
0.0
 40
0.0219356032790203
 50
308.86405965483112
 51
327.40345753600309
  0
LINE
  5
2D1
  8
DATA
  6
CONTINUOUS
 62
     7
 10
162.86563282438991
 20
137.99952338614381
 30
0.0
 11
162.8290607708914
 21
137.99985108752259
 31
0.0
  0
LINE
  5
2D2
  8
DATA
  6
CONTINUOUS
 62
     7
 10
163.24625166378951
 20
132.70753346614379
 30
0.0
 11
163.24625166378951
 21
137.7475233861438
 31
0.0
  0
LINE
  5
2D3
  8
DATA
  6
CONTINUOUS
 62
     7
 10
163.2133771549895
 20
137.9995356837438
 30
0.0
 11
162.86563449258949
 21
137.9995356837438
 31
0.0
  0
LINE
  5
2D4
  8
DATA
  6
CONTINUOUS
 62
     7
 10
162.4137380125895
 20
137.7475233861438
 30
0.0
 11
162.4137380125895
 21
132.70753346614379
 31
0.0
  0
ARC
  5
2D5
  8
DATA
  6
CONTINUOUS
 62
     7
 10
162.81851296231639
 20
137.42726748453069
 30
0.0
 40
0.5726807476080241
 50
88.944649193722114
 51
122.7169240231523
  0
ARC
  5
2D6
  8
DATA
  6
CONTINUOUS
 62
     7
 10
162.63654738850391
 20
137.72119793661881
 30
0.0
 40
0.2271049418190296
 50
124.1725755284989
 51
156.30265791192409
  0
ARC
  5
2D7
  8
DATA
  6
CONTINUOUS
 62
     7
 10
162.59291206085831
 20
137.73997054490539
 30
0.0
 40
0.1796044164682666
 50
156.19178742596949
 51
172.8899228928295
  0
ARC
  5
2D8
  8
DATA
  6
CONTINUOUS
 62
     7
 10
172.61410408112741
 20
137.09416623620041
 30
0.0
 40
10.22126917254222
 50
176.2526288105984
 51
176.3350787329716
  0
ARC
  5
2D9
  8
DATA
  6
CONTINUOUS
 62
     7
 10
161.99808226520179
 20
137.7778948563834
 30
0.0
 40
1.2485409180211891
 50
358.60610997917041
 51
5.4665115100142421
  0
ARC
  5
2DA
  8
DATA
  6
CONTINUOUS
 62
     7
 10
162.16597408761939
 20
137.77568658488181
 30
0.0
 40
1.0817760088884461
 50
6.430102079505545
 51
10.339152036726659
  0
ARC
  5
2DB
  8
DATA
  6
CONTINUOUS
 62
     7
 10
163.17168115883919
 20
137.96234354260989
 30
0.0
 40
0.0589817847854648
 50
7.2997512847449411
 51
30.22160656767047
  0
ARC
  5
2DC
  8
DATA
  6
CONTINUOUS
 62
     7
 10
163.20824625781839
 20
137.98336724999541
 30
0.0
 40
0.0169630290825715
 50
55.188600045073457
 51
72.393664290114785
  0
ARC
  5
2DD
  8
DATA
  6
CONTINUOUS
 62
     7
 10
163.2041660225172
 20
137.98021463124269
 30
0.0
 40
0.0219356032789751
 50
32.596542464059532
 51
51.135940345238708
  0
LINE
  5
2DE
  8
DATA
  6
CONTINUOUS
 62
     7
 10
162.86563282438991
 20
132.455533463634
 30
0.0
 11
162.8290607708914
 21
132.45520576225519
 31
0.0
  0
LINE
  5
2DF
  8
DATA
  6
CONTINUOUS
 62
     7
 10
163.2133771549895
 20
132.455521166034
 30
0.0
 11
162.86563449258949
 21
132.455521166034
 31
0.0
  0
ARC
  5
2E0
  8
DATA
  6
CONTINUOUS
 62
     7
 10
162.81851296231639
 20
133.02778936524709
 30
0.0
 40
0.5726807476080066
 50
237.28307597684761
 51
271.05535080627777
  0
ARC
  5
2E1
  8
DATA
  6
CONTINUOUS
 62
     7
 10
162.63654738850391
 20
132.73385891315891
 30
0.0
 40
0.2271049418189927
 50
203.69734208807509
 51
235.82742447149661
  0
ARC
  5
2E2
  8
DATA
  6
CONTINUOUS
 62
     7
 10
162.59291206085831
 20
132.71508630487239
 30
0.0
 40
0.1796044164682104
 50
187.11007710716149
 51
203.8082125740253
  0
ARC
  5
2E3
  8
DATA
  6
CONTINUOUS
 62
     7
 10
172.61410408112741
 20
133.36089061357731
 30
0.0
 40
10.221269172542261
 50
183.66492126702829
 51
183.74737118940149
  0
ARC
  5
2E4
  8
DATA
  6
CONTINUOUS
 62
     7
 10
161.99808226520179
 20
132.67716199339429
 30
0.0
 40
1.248540918021213
 50
354.53348848998598
 51
1.3938900208296441
  0
ARC
  5
2E5
  8
DATA
  6
CONTINUOUS
 62
     7
 10
162.16597408761939
 20
132.67937026489591
 30
0.0
 40
1.0817760088883961
 50
349.66084796327351
 51
353.56989792049387
  0
ARC
  5
2E6
  8
DATA
  6
CONTINUOUS
 62
     7
 10
163.17168115883919
 20
132.4927133071678
 30
0.0
 40
0.0589817847854386
 50
329.77839343232949
 51
352.7002487152551
  0
ARC
  5
2E7
  8
DATA
  6
CONTINUOUS
 62
     7
 10
163.20824625781839
 20
132.47168959978231
 30
0.0
 40
0.016963029082541
 50
287.60633570989972
 51
304.81139995495408
  0
ARC
  5
2E8
  8
DATA
  6
CONTINUOUS
 62
     7
 10
163.2041660225172
 20
132.474842218535
 30
0.0
 40
0.0219356032790203
 50
308.86405965483112
 51
327.40345753600309
  0
LINE
  5
2E9
  8
DATA
  6
CONTINUOUS
 62
     7
 10
162.86563282438991
 20
130.9435233861438
 30
0.0
 11
162.8290607708914
 21
130.9438510875226
 31
0.0
  0
LINE
  5
2EA
  8
DATA
  6
CONTINUOUS
 62
     7
 10
163.24625166378951
 20
125.6515334661438
 30
0.0
 11
163.24625166378951
 21
130.69152338614381
 31
0.0
  0
LINE
  5
2EB
  8
DATA
  6
CONTINUOUS
 62
     7
 10
163.2133771549895
 20
130.94353568374379
 30
0.0
 11
162.86563449258949
 21
130.94353568374379
 31
0.0
  0
LINE
  5
2EC
  8
DATA
  6
CONTINUOUS
 62
     7
 10
162.4137380125895
 20
130.69152338614381
 30
0.0
 11
162.4137380125895
 21
125.6515334661438
 31
0.0
  0
ARC
  5
2ED
  8
DATA
  6
CONTINUOUS
 62
     7
 10
162.81851296231639
 20
130.3712674845307
 30
0.0
 40
0.5726807476080223
 50
88.944649193722114
 51
122.7169240231524
  0
ARC
  5
2EE
  8
DATA
  6
CONTINUOUS
 62
     7
 10
162.63654738850391
 20
130.66519793661891
 30
0.0
 40
0.2271049418190296
 50
124.1725755284989
 51
156.30265791192409
  0
ARC
  5
2EF
  8
DATA
  6
CONTINUOUS
 62
     7
 10
162.59291206085831
 20
130.68397054490529
 30
0.0
 40
0.1796044164682666
 50
156.19178742596949
 51
172.88992289283391
  0
ARC
  5
2F0
  8
DATA
  6
CONTINUOUS
 62
     7
 10
172.61410408112741
 20
130.0381662362004
 30
0.0
 40
10.22126917254222
 50
176.2526288105984
 51
176.3350787329716
  0
ARC
  5
2F1
  8
DATA
  6
CONTINUOUS
 62
     7
 10
161.99808226520179
 20
130.7218948563835
 30
0.0
 40
1.2485409180211891
 50
358.60610997917041
 51
5.4665115100136168
  0
ARC
  5
2F2
  8
DATA
  6
CONTINUOUS
 62
     7
 10
162.16597408761939
 20
130.71968658488191
 30
0.0
 40
1.0817760088884441
 50
6.4301020795047954
 51
10.339152036726659
  0
ARC
  5
2F3
  8
DATA
  6
CONTINUOUS
 62
     7
 10
163.17168115883919
 20
130.9063435426099
 30
0.0
 40
0.0589817847854648
 50
7.2997512847449411
 51
30.22160656767047
  0
ARC
  5
2F4
  8
DATA
  6
CONTINUOUS
 62
     7
 10
163.20824625781839
 20
130.9273672499954
 30
0.0
 40
0.0169630290825715
 50
55.188600045073457
 51
72.393664290114785
  0
ARC
  5
2F5
  8
DATA
  6
CONTINUOUS
 62
     7
 10
163.2041660225172
 20
130.92421463124271
 30
0.0
 40
0.0219356032789751
 50
32.596542464059532
 51
51.135940345238708
  0
LINE
  5
2F6
  8
DATA
  6
CONTINUOUS
 62
     7
 10
162.86563282438991
 20
125.399533463634
 30
0.0
 11
162.8290607708914
 21
125.39920576225521
 31
0.0
  0
LINE
  5
2F7
  8
DATA
  6
CONTINUOUS
 62
     7
 10
163.2133771549895
 20
125.39952116603401
 30
0.0
 11
162.86563449258949
 21
125.39952116603401
 31
0.0
  0
ARC
  5
2F8
  8
DATA
  6
CONTINUOUS
 62
     7
 10
162.81851296231639
 20
125.9717893652471
 30
0.0
 40
0.5726807476079916
 50
237.2830759768467
 51
271.05535080627789
  0
ARC
  5
2F9
  8
DATA
  6
CONTINUOUS
 62
     7
 10
162.63654738850391
 20
125.6778589131589
 30
0.0
 40
0.2271049418189884
 50
203.69734208807259
 51
235.82742447149499
  0
ARC
  5
2FA
  8
DATA
  6
CONTINUOUS
 62
     7
 10
162.59291206085831
 20
125.6590863048724
 30
0.0
 40
0.1796044164682121
 50
187.11007710716601
 51
203.80821257402641
  0
ARC
  5
2FB
  8
DATA
  6
CONTINUOUS
 62
     7
 10
172.61410408112741
 20
126.3048906135774
 30
0.0
 40
10.221269172542261
 50
183.66492126702829
 51
183.7473711894016
  0
ARC
  5
2FC
  8
DATA
  6
CONTINUOUS
 62
     7
 10
161.99808226520179
 20
125.6211619933943
 30
0.0
 40
1.248540918021213
 50
354.53348848998581
 51
1.393890020829587
  0
ARC
  5
2FD
  8
DATA
  6
CONTINUOUS
 62
     7
 10
162.16597408761939
 20
125.6233702648959
 30
0.0
 40
1.0817760088883961
 50
349.6608479632734
 51
353.56989792049382
  0
ARC
  5
2FE
  8
DATA
  6
CONTINUOUS
 62
     7
 10
163.17168115883919
 20
125.43671330716781
 30
0.0
 40
0.0589817847854457
 50
329.77839343231761
 51
352.7002487152551
  0
ARC
  5
2FF
  8
DATA
  6
CONTINUOUS
 62
     7
 10
163.20824625781839
 20
125.4156895997824
 30
0.0
 40
0.016963029082541
 50
287.60633570989972
 51
304.81139995495408
  0
ARC
  5
300
  8
DATA
  6
CONTINUOUS
 62
     7
 10
163.2041660225172
 20
125.418842218535
 30
0.0
 40
0.0219356032790203
 50
308.86405965483112
 51
327.40345753600309
  0
ARC
  5
301
  8
DATA
  6
CONTINUOUS
 62
     7
 10
103.0247573998485
 20
103.5149120759321
 30
0.0
 40
3.0247574050725969
 50
180.00343972592049
 51
198.43379246885419
  0
ARC
  5
302
  8
DATA
  6
CONTINUOUS
 62
     7
 10
101.55342923901139
 20
100.7567619921542
 30
0.0
 40
0.7567508804755613
 50
198.47707239162631
 51
269.96075429354357
  0
ARC
  5
303
  8
DATA
  6
CONTINUOUS
 62
     7
 10
114.5122684157555
 20
103.5152057549964
 30
0.0
 40
3.0269282244303288
 50
341.57404373356462
 51
0.0120694887300488
  0
ARC
  5
304
  8
DATA
  6
CONTINUOUS
 62
     7
 10
115.98584730479
 20
100.75664663846619
 30
0.0
 40
0.7566354878378369
 50
270.03467677391768
 51
341.53037422609208
  0
ARC
  5
305
  8
DATA
  6
CONTINUOUS
 62
     7
 10
103.02815034681539
 20
146.9854682369361
 30
0.0
 40
3.028130851364939
 50
161.5789489924486
 51
179.98859644769959
  0
ARC
  5
306
  8
DATA
  6
CONTINUOUS
 62
     7
 10
114.5135872067553
 20
146.98581547993109
 30
0.0
 40
3.0256289322546559
 50
0.0048373050936074
 51
18.42990044955388
  0
ARC
  5
307
  8
DATA
  6
CONTINUOUS
 62
     7
 10
134.27387315794701
 20
103.5147201368999
 30
0.0
 40
3.023879205897261
 50
179.99980391180341
 51
198.43563998257781
  0
ARC
  5
308
  8
DATA
  6
CONTINUOUS
 62
     7
 10
132.80302392054131
 20
100.7561871187566
 30
0.0
 40
0.7561871320869813
 50
198.44426611231609
 51
269.98949579140969
  0
ARC
  5
309
  8
DATA
  6
CONTINUOUS
 62
     7
 10
161.75139007761339
 20
100.7561622838208
 30
0.0
 40
0.7561510030984319
 50
270.00846638674739
 51
341.55564730990119
  0
ARC
  5
30A
  8
DATA
  6
CONTINUOUS
 62
     7
 10
160.28073864248171
 20
103.51466454856021
 30
0.0
 40
3.023648455904663
 50
341.56401278651521
 51
0.0012494588332288
  0
ARC
  5
30B
  8
DATA
  6
CONTINUOUS
 62
     7
 10
139.18327920683649
 20
105.0100850525467
 30
0.0
 40
0.9785501759815737
 50
178.2487464462117
 51
271.75125355378822
  0
ARC
  5
30C
  8
DATA
  6
CONTINUOUS
 62
     7
 10
155.3361104968948
 20
105.04509059914901
 30
0.0
 40
1.0131033514713059
 50
270.28747180293118
 51
359.71153124920909
  0
ARC
  5
30D
  8
DATA
  6
CONTINUOUS
 62
     7
 10
139.2179857947645
 20
144.34721210871641
 30
0.0
 40
1.0128109659679561
 50
90.27163942053221
 51
179.7298158766948
  0
ARC
  5
30E
  8
DATA
  6
CONTINUOUS
 62
     7
 10
154.63361990048759
 20
144.86859704083139
 30
0.0
 40
0.4914419977566207
 50
44.47163716701273
 51
90.604440663439519
  0
ARC
  5
30F
  8
DATA
  6
CONTINUOUS
 62
     7
 10
155.84610805653401
 20
143.63960122557361
 30
0.0
 40
0.5030930767853937
 50
359.95956984866132
 51
45.044375279292012
  0
ARC
  5
310
  8
DATA
  6
CONTINUOUS
 62
     7
 10
134.27387315794701
 20
146.9860812730555
 30
0.0
 40
3.0238792058972161
 50
161.5643600174221
 51
180.00019608819659
  0
ARC
  5
311
  8
DATA
  6
CONTINUOUS
 62
     7
 10
160.28059547153109
 20
146.98612288130209
 30
0.0
 40
3.023791626582728
 50
359.99901549963988
 51
18.43522735465643
  0
ARC
  5
312
  8
DATA
  6
CONTINUOUS
 62
     7
 10
132.63498863810199
 20
149.2406363615716
 30
0.0
 40
0.756154775634186
 50
90.008452431181993
 51
161.5565985688126
  0
ARC
  5
313
  8
DATA
  6
CONTINUOUS
 62
     7
 10
161.91948276507719
 20
149.2407698404771
 30
0.0
 40
0.7560325785915197
 50
18.435826629608421
 51
89.997935274114894
  0
ARC
  5
314
  8
DATA
  6
CONTINUOUS
 62
     7
 10
137.49958750086751
 20
150.7527881049777
 30
0.0
 40
0.2519999999999953
 50
90.0
 51
180.00000000000321
  0
ARC
  5
315
  8
DATA
  6
CONTINUOUS
 62
     7
 10
142.53961189052899
 20
150.7528102762198
 30
0.0
 40
0.2519778289139148
 50
359.9949586096364
 51
90.002016093338852
  0
LINE
  5
316
  8
DATA
  6
CONTINUOUS
 62
     7
 10
150.29227758726751
 20
151.37742937537769
 30
0.0
 11
152.12451938886761
 21
150.12817243777769
 31
0.0
  0
ARC
  5
317
  8
DATA
  6
CONTINUOUS
 62
     7
 10
144.68799313926741
 20
150.75278810497781
 30
0.0
 40
0.7559999999998867
 50
90.0
 51
124.2868770000017
  0
ARC
  5
318
  8
DATA
  6
CONTINUOUS
 62
     7
 10
149.86626212471691
 20
150.75235876943739
 30
0.0
 40
0.7564406366283666
 50
55.723701926969042
 51
89.990014394810501
  0
ARC
  5
319
  8
DATA
  6
CONTINUOUS
 62
     7
 10
142.0037447281905
 20
150.75428224611099
 30
0.0
 40
0.757479865349056
 50
270.0181045770658
 51
304.4265630719816
  0
ARC
  5
31A
  8
DATA
  6
CONTINUOUS
 62
     7
 10
142.0039015778479
 20
150.99211489988821
 30
0.0
 40
1.512241091560999
 50
270.00312584349888
 51
304.28451280600319
  0
ARC
  5
31B
  8
DATA
  6
CONTINUOUS
 62
     7
 10
116.1538649246361
 20
149.24017287076509
 30
0.0
 40
0.7566183913752733
 50
18.469850411081548
 51
89.966035892268124
  0
ARC
  5
31C
  8
DATA
  6
CONTINUOUS
 62
     7
 10
101.8899757524464
 20
150.7498090263251
 30
0.0
 40
0.7589911284519461
 50
90.081080845309415
 51
117.9212946899307
  0
ARC
  5
31D
  8
DATA
  6
CONTINUOUS
 62
     7
 10
101.8922894009376
 20
150.7504953271314
 30
0.0
 40
0.7599397127787818
 50
130.3385646552573
 51
161.481827709328
  0
ARC
  5
31E
  8
DATA
  6
CONTINUOUS
 62
     7
 10
101.88077665789849
 20
150.76360933626469
 30
0.0
 40
0.7424916072465477
 50
117.79272415507469
 51
130.31644449261711
  0
ARC
  5
31F
  8
DATA
  6
CONTINUOUS
 62
     7
 10
101.38483230236309
 20
149.24199197959899
 30
0.0
 40
0.754799152887653
 50
89.994656861686394
 51
112.6877563467701
  0
ARC
  5
320
  8
DATA
  6
CONTINUOUS
 62
     7
 10
101.3875251060589
 20
149.2368614512003
 30
0.0
 40
0.7605714900882094
 50
112.7258403778239
 51
131.90922591431769
  0
ARC
  5
321
  8
DATA
  6
CONTINUOUS
 62
     7
 10
101.38336816709381
 20
149.2415595619284
 30
0.0
 40
0.7542985012534808
 50
131.91260637342799
 51
161.58233544130439
  0
ARC
  5
322
  8
DATA
  6
CONTINUOUS
 62
     7
 10
107.76163010159929
 20
150.75278038210899
 30
0.0
 40
0.252020021490952
 50
90.004551781821235
 51
179.99824418399879
  0
ARC
  5
323
  8
DATA
  6
CONTINUOUS
 62
     7
 10
112.8014117693849
 20
150.7525998743626
 30
0.0
 40
0.2521883010887911
 50
0.0427650044587151
 51
89.9572349955574
  0
ARC
  5
324
  8
DATA
  6
CONTINUOUS
 62
     7
 10
107.7618590613077
 20
150.50067853887131
 30
0.0
 40
0.2521019472086197
 50
90.0520361977199
 51
220.3349863100548
  0
ARC
  5
325
  8
DATA
  6
CONTINUOUS
 62
     7
 10
112.8013133829745
 20
150.5006689553118
 30
0.0
 40
0.2521326184020714
 50
319.67163224084339
 51
47.187277455664557
  0
ARC
  5
326
  8
DATA
  6
CONTINUOUS
 62
     7
 10
112.8017595921104
 20
150.5010509732719
 30
0.0
 40
0.2515491415620234
 50
47.202699565800231
 51
90.079224204138583
  0
ARC
  5
327
  8
DATA
  6
CONTINUOUS
 62
     7
 10
152.5508563623797
 20
150.7553220168694
 30
0.0
 40
0.7585197337671469
 50
236.29252596154629
 51
269.96575601258672
  0
ARC
  5
328
  8
DATA
  6
CONTINUOUS
 62
     7
 10
152.55039101009689
 20
150.9917911242942
 30
0.0
 40
1.5119203377606449
 50
235.7115348309969
 51
270.00045503926401
  0
ARC
  5
329
  8
DATA
  6
CONTINUOUS
 62
     7
 10
152.0148760666774
 20
150.50071520499469
 30
0.0
 40
0.2520862223683401
 50
90.020908763979094
 51
183.69941936103001
  0
ARC
  5
32A
  8
DATA
  6
CONTINUOUS
 62
     7
 10
151.98660738157639
 20
150.48938471711901
 30
0.0
 40
0.2233467786308143
 50
181.26600747901119
 51
222.84782064598679
  0
ARC
  5
32B
  8
DATA
  6
CONTINUOUS
 62
     7
 10
157.05472725665689
 20
150.50076952804071
 30
0.0
 40
0.2520342807113045
 50
319.62480411532641
 51
44.15227837237984
  0
ARC
  5
32C
  8
DATA
  6
CONTINUOUS
 62
     7
 10
157.05484929420109
 20
150.5008761627397
 30
0.0
 40
0.2519119471402396
 50
45.173266814487882
 51
90.011303344351717
  0
LINE
  5
32D
  8
DATA
  6
CONTINUOUS
 62
     7
 10
157.23555959166421
 20
150.67632847902141
 30
0.0
 11
157.23243845197661
 21
150.67954266814169
 31
0.0
  0
ARC
  5
32E
  8
DATA
  6
CONTINUOUS
 62
     7
 10
58.769010888019622
 20
65.019608064202956
 30
0.0
 40
8.7696003099677498
 50
90.015233723519472
 51
269.9847662764804
  0
ARC
  5
32F
  8
DATA
  6
CONTINUOUS
 62
     7
 10
58.766679238706878
 20
65.01511966468253
 30
0.0
 40
4.2833227330914747
 50
38.227879746137781
 51
141.772120253861
  0
ARC
  5
330
  8
DATA
  6
CONTINUOUS
 62
     7
 10
58.793157593547491
 20
65.03744266157311
 30
0.0
 40
4.2487093983863451
 50
18.56972306552548
 51
38.212352572853568
  0
ARC
  5
331
  8
DATA
  6
CONTINUOUS
 62
     7
 10
58.749525562803377
 20
65.002652608572859
 30
0.0
 40
4.3011913291507531
 50
0.2258626713088343
 51
18.823937258536969
  0
ARC
  5
332
  8
DATA
  6
CONTINUOUS
 62
     7
 10
58.782068912802778
 20
65.010835606136098
 30
0.0
 40
4.2993986237312889
 50
141.86813556231189
 51
179.8830940752577
  0
ARC
  5
333
  8
DATA
  6
CONTINUOUS
 62
     7
 10
58.766679238706878
 20
63.509430310511753
 30
0.0
 40
4.2806567662893986
 50
209.77453607608231
 51
330.22546392391888
  0
ARC
  5
334
  8
DATA
  6
CONTINUOUS
 62
     7
 10
58.720760089954098
 20
63.528470476756937
 30
0.0
 40
4.3299736270718006
 50
330.3085143277836
 51
359.7239799469578
  0
ARC
  5
335
  8
DATA
  6
CONTINUOUS
 62
     7
 10
58.857745971005713
 20
63.540545293995763
 30
0.0
 40
4.3751906900132997
 50
180.4312975017896
 51
209.53599507551399
  0
LINE
  5
336
  8
DATA
  6
CONTINUOUS
 62
     7
 10
77.565880045107065
 20
65.01960806420297
 30
0.0
 11
77.565880045107065
 21
63.507611088203042
 31
0.0
  0
LINE
  5
337
  8
DATA
  6
CONTINUOUS
 62
     7
 10
68.997897181106893
 20
63.507611088203042
 30
0.0
 11
68.997897181106893
 21
65.01960806420297
 31
0.0
  0
ARC
  5
338
  8
DATA
  6
CONTINUOUS
 62
     7
 10
73.281875811506993
 20
65.01511966468253
 30
0.0
 40
4.2833227330914916
 50
38.22787974613761
 51
141.77212025386251
  0
ARC
  5
339
  8
DATA
  6
CONTINUOUS
 62
     7
 10
73.30835416634747
 20
65.03744266157311
 30
0.0
 40
4.248709398386473
 50
18.569723065524901
 51
38.212352572852453
  0
ARC
  5
33A
  8
DATA
  6
CONTINUOUS
 62
     7
 10
73.264722135603492
 20
65.002652608572859
 30
0.0
 40
4.3011913291506572
 50
0.2258626713088393
 51
18.823937258536521
  0
ARC
  5
33B
  8
DATA
  6
CONTINUOUS
 62
     7
 10
73.297265485602864
 20
65.010835606136098
 30
0.0
 40
4.299398623731407
 50
141.868135562313
 51
179.8830940752577
  0
ARC
  5
33C
  8
DATA
  6
CONTINUOUS
 62
     7
 10
73.281875811506993
 20
63.509430310511753
 30
0.0
 40
4.2806567662894288
 50
209.774536076082
 51
330.22546392391848
  0
ARC
  5
33D
  8
DATA
  6
CONTINUOUS
 62
     7
 10
73.235956662754205
 20
63.528470476756937
 30
0.0
 40
4.3299736270718201
 50
330.30851432778371
 51
359.7239799469578
  0
ARC
  5
33E
  8
DATA
  6
CONTINUOUS
 62
     7
 10
73.372942543805706
 20
63.540545293995763
 30
0.0
 40
4.3751906900132287
 50
180.4312975017896
 51
209.5359950755138
  0
ARC
  5
33F
  8
DATA
  6
CONTINUOUS
 62
     7
 10
73.279569765320943
 20
65.019608064202956
 30
0.0
 40
8.7696003099677231
 50
270.01523372351949
 51
89.984766276480485
  0
ARC
  5
340
  8
DATA
  6
CONTINUOUS
 62
     7
 10
58.769592619683742
 20
177.5196080635591
 30
0.0
 40
8.7696080640039025
 50
90.000052685750205
 51
269.99994731424982
  0
CIRCLE
  5
341
  8
DATA
  6
CONTINUOUS
 62
     7
 10
58.763615725873812
 20
176.0148841277215
 30
0.0
 40
2.7586681070888659
  0
CIRCLE
  5
342
  8
DATA
  6
CONTINUOUS
 62
     7
 10
73.278812298673884
 20
176.0148841277215
 30
0.0
 40
2.7586681070888841
  0
ARC
  5
343
  8
DATA
  6
CONTINUOUS
 62
     7
 10
73.257630937936824
 20
177.5196080635591
 30
0.0
 40
8.7696080640037302
 50
270.00005268574961
 51
89.999947314250562
  0
TEXT
  5
344
  8
DATA
 62
     7
 10
147.61510904171831
 20
25.14148687934938
 30
0.0
 40
1.6288411458333329
  1
リチウムイオンバッテリー
 41
0.7
 11
147.61510904171831
 21
26.77032802518271
 31
0.0
 73
     3
  0
LINE
  5
345
  8
DATA
  6
CONTINUOUS
 62
     7
 10
64.477195643680034
 20
169.24999999955909
 30
0.0
 11
64.477195643680034
 21
173.74999999955909
 31
0.0
  0
LINE
  5
346
  8
DATA
  6
CONTINUOUS
 62
     7
 10
67.577195643680042
 20
173.74999999955909
 30
0.0
 11
67.577195643680042
 21
169.24999999955909
 31
0.0
  0
LINE
  5
347
  8
DATA
  6
CONTINUOUS
 62
     7
 10
64.477195643680034
 20
173.74999999955909
 30
0.0
 11
67.577195643680042
 21
173.74999999955909
 31
0.0
  0
LINE
  5
348
  8
DATA
  6
CONTINUOUS
 62
     7
 10
67.577195643680042
 20
170.24999999955909
 30
0.0
 11
64.477195643680034
 21
170.24999999955909
 31
0.0
  0
LINE
  5
349
  8
DATA
  6
CONTINUOUS
 62
     7
 10
63.977195643680041
 20
168.74999999955909
 30
0.0
 11
64.477195643680034
 21
169.24999999955909
 31
0.0
  0
LINE
  5
34A
  8
DATA
  6
CONTINUOUS
 62
     7
 10
68.077195643680042
 20
168.74999999955909
 30
0.0
 11
67.577195643680042
 21
169.24999999955909
 31
0.0
  0
LINE
  5
34B
  8
DATA
  6
CONTINUOUS
 62
     7
 10
57.513607746895097
 20
181.55052669304351
 30
0.0
 11
57.513607746895097
 21
184.55052669304351
 31
0.0
  0
LINE
  5
34C
  8
DATA
  6
CONTINUOUS
 62
     7
 10
74.51360774689509
 20
181.55052669304351
 30
0.0
 11
57.513607746895097
 21
181.55052669304351
 31
0.0
  0
LINE
  5
34D
  8
DATA
  6
CONTINUOUS
 62
     7
 10
74.51360774689509
 20
184.55052669304351
 30
0.0
 11
74.51360774689509
 21
181.55052669304351
 31
0.0
  0
LINE
  5
34E
  8
DATA
  6
CONTINUOUS
 62
     7
 10
57.513607746895097
 20
184.55052669304351
 30
0.0
 11
74.51360774689509
 21
184.55052669304351
 31
0.0
  0
LINE
  5
34F
  8
DATA
  6
CONTINUOUS
 62
     7
 10
61.013607746895097
 20
184.68921612755929
 30
0.0
 11
61.013607746895097
 21
186.28921612755931
 31
0.0
  0
LINE
  5
350
  8
DATA
  6
CONTINUOUS
 62
     7
 10
71.01360774689509
 20
184.68921612755929
 30
0.0
 11
61.013607746895097
 21
184.68921612755929
 31
0.0
  0
LINE
  5
351
  8
DATA
  6
CONTINUOUS
 62
     7
 10
71.01360774689509
 20
186.28921612755931
 30
0.0
 11
71.01360774689509
 21
184.68921612755929
 31
0.0
  0
LINE
  5
352
  8
DATA
  6
CONTINUOUS
 62
     7
 10
61.013607746895097
 20
186.28921612755931
 30
0.0
 11
71.01360774689509
 21
186.28921612755931
 31
0.0
  0
LINE
  5
353
  8
DATA
  6
CONTINUOUS
 62
     7
 10
67.577195643680014
 20
73.289208064459089
 30
0.0
 11
67.577195643680014
 21
68.789208064459103
 31
0.0
  0
LINE
  5
354
  8
DATA
  6
CONTINUOUS
 62
     7
 10
64.477195643680034
 20
68.789208064459103
 30
0.0
 11
64.477195643680034
 21
73.289208064459089
 31
0.0
  0
LINE
  5
355
  8
DATA
  6
CONTINUOUS
 62
     7
 10
67.577195643680014
 20
68.789208064459103
 30
0.0
 11
64.477195643680034
 21
68.789208064459103
 31
0.0
  0
LINE
  5
356
  8
DATA
  6
CONTINUOUS
 62
     7
 10
64.477195643680034
 20
72.289208064459089
 30
0.0
 11
67.577195643680014
 21
72.289208064459089
 31
0.0
  0
LINE
  5
357
  8
DATA
  6
CONTINUOUS
 62
     7
 10
68.077195643680042
 20
73.789208064459089
 30
0.0
 11
67.577195643680042
 21
73.289208064459089
 31
0.0
  0
LINE
  5
358
  8
DATA
  6
CONTINUOUS
 62
     7
 10
63.977195643680041
 20
73.789208064459089
 30
0.0
 11
64.477195643680034
 21
73.289208064459089
 31
0.0
  0
LINE
  5
359
  8
DATA
  6
CONTINUOUS
 62
     7
 10
63.277461061845287
 20
147.61981045507491
 30
0.0
 11
63.313029482060152
 21
147.94234368954841
 31
0.0
  0
ARC
  5
35A
  8
DATA
  6
CONTINUOUS
 62
     7
 10
55.850661811669198
 20
148.366902179497
 30
0.0
 40
7.4642811540774563
 50
349.33935335146708
 51
354.2557099788138
  0
ARC
  5
35B
  8
DATA
  6
CONTINUOUS
 62
     7
 10
61.530015652678003
 20
148.82792118045319
 30
0.0
 40
2.4769045274279562
 50
311.9602274172201
 51
328.54254599962547
  0
ARC
  5
35C
  8
DATA
  6
CONTINUOUS
 62
     7
 10
68.85575908569885
 20
147.01389521747009
 30
0.0
 40
5.2388850211382127
 50
171.20586287903339
 51
174.287912047329
  0
ARC
  5
35D
  8
DATA
  6
CONTINUOUS
 62
     7
 10
65.51001395158714
 20
149.3635717017701
 30
0.0
 40
1.961469886572961
 50
166.4250190699577
 51
176.45073285730149
  0
ARC
  5
35E
  8
DATA
  6
CONTINUOUS
 62
     7
 10
64.05855811580011
 20
149.7223045139381
 30
0.0
 40
0.4664306976076942
 50
149.6658882642368
 51
167.4113125106874
  0
ARC
  5
35F
  8
DATA
  6
CONTINUOUS
 62
     7
 10
63.734418486520127
 20
149.9142646074153
 30
0.0
 40
0.0897413241614199
 50
120.3129749231023
 51
150.9274584542475
  0
ARC
  5
360
  8
DATA
  6
CONTINUOUS
 62
     7
 10
64.37079257436254
 20
149.293102895011
 30
0.0
 40
0.4572114872627059
 50
147.7140889985584
 51
172.55195805335131
  0
ARC
  5
361
  8
DATA
  6
CONTINUOUS
 62
     7
 10
64.09332024588096
 20
149.46844844870199
 30
0.0
 40
0.1289784085757458
 50
109.4232413839739
 51
147.7254727182931
  0
ARC
  5
362
  8
DATA
  6
CONTINUOUS
 62
     7
 10
64.096386450442452
 20
149.36593071181341
 30
0.0
 40
0.2288183589723368
 50
95.73636311819017
 51
101.5864124656522
  0
LINE
  5
363
  8
DATA
  6
CONTINUOUS
 62
     7
 10
64.404053081938031
 20
148.67923614365341
 30
0.0
 11
64.404053081938031
 21
149.59430214576111
 31
0.0
  0
ARC
  5
364
  8
DATA
  6
CONTINUOUS
 62
     7
 10
65.019426846589056
 20
138.90903128156799
 30
0.0
 40
0.5042313349568748
 50
180.02639509145959
 51
269.97371950021591
  0
ARC
  5
365
  8
DATA
  6
CONTINUOUS
 62
     7
 10
65.019113708287833
 20
138.9084891750085
 30
0.0
 40
0.7703721109039754
 50
251.0043995997068
 51
270.00608803457652
  0
ARC
  5
366
  8
DATA
  6
CONTINUOUS
 62
     7
 10
65.03169235603994
 20
138.7244387853053
 30
0.0
 40
0.6047058011297539
 50
200.54074999320281
 51
244.1847843574474
  0
ARC
  5
367
  8
DATA
  6
CONTINUOUS
 62
     7
 10
65.631554350653573
 20
138.89577550712229
 30
0.0
 40
1.2275678096765501
 50
179.5005844131008
 51
198.20489635163369
  0
ARC
  5
368
  8
DATA
  6
CONTINUOUS
 62
     7
 10
67.035328299566004
 20
138.9084349721972
 30
0.0
 40
0.5036359991138808
 50
269.98444086758138
 51
336.73314035839081
  0
ARC
  5
369
  8
DATA
  6
CONTINUOUS
 62
     7
 10
67.033557996153178
 20
138.90937290302719
 30
0.0
 40
0.5056328546898633
 50
336.71474269189218
 51
359.93496722713172
  0
ARC
  5
36A
  8
DATA
  6
CONTINUOUS
 62
     7
 10
67.035103411192623
 20
138.9091178002187
 30
0.0
 40
0.7710105457565222
 50
270.00654856874519
 51
288.99262736072558
  0
ARC
  5
36B
  8
DATA
  6
CONTINUOUS
 62
     7
 10
66.85179488060453
 20
138.92285165000681
 30
0.0
 40
0.8603867747046491
 50
300.31097671817849
 51
323.32998105364362
  0
ARC
  5
36C
  8
DATA
  6
CONTINUOUS
 62
     7
 10
66.632723815932209
 20
138.8679482211119
 30
0.0
 40
1.0184373707645209
 50
333.21677910583293
 51
2.2988773726315221
  0
LINE
  5
36D
  8
DATA
  6
CONTINUOUS
 62
     7
 10
67.650334016337951
 20
148.67923614365341
 30
0.0
 11
67.650334016337951
 21
149.59360322525339
 31
0.0
  0
ARC
  5
36E
  8
DATA
  6
CONTINUOUS
 62
     7
 10
70.497195797055682
 20
148.80580930011561
 30
0.0
 40
2.4421975191698961
 50
211.34751901010469
 51
228.16401635777501
  0
ARC
  5
36F
  8
DATA
  6
CONTINUOUS
 62
     7
 10
80.316127506624696
 20
148.99407878435679
 30
0.0
 40
11.62247368111716
 50
185.1918499977368
 51
189.94887730736079
  0
ARC
  5
370
  8
DATA
  6
CONTINUOUS
 62
     7
 10
67.23859072780408
 20
149.460224970577
 30
0.0
 40
1.263919317414024
 50
0.8907538290245732
 51
22.66458847838296
  0
ARC
  5
371
  8
DATA
  6
CONTINUOUS
 62
     7
 10
68.304844825914941
 20
149.8994977203009
 30
0.0
 40
0.1107018012764917
 50
26.781265462104709
 51
57.16442265343877
  0
ARC
  5
372
  8
DATA
  6
CONTINUOUS
 62
     7
 10
68.346736183382745
 20
149.95639552926519
 30
0.0
 40
0.0404142275929833
 50
63.338705871945251
 51
88.908142266076126
  0
LINE
  5
373
  8
DATA
  6
CONTINUOUS
 62
     7
 10
68.404905672674232
 20
149.9472583270371
 30
0.0
 11
68.403679251144737
 21
149.94938255143771
 31
0.0
  0
LINE
  5
374
  8
DATA
  6
CONTINUOUS
 62
     7
 10
68.13694843553796
 20
149.35236987485339
 30
0.0
 11
68.106357222064133
 21
149.4694526013206
 31
0.0
  0
ARC
  5
375
  8
DATA
  6
CONTINUOUS
 62
     7
 10
67.978003058855833
 20
149.49971093839011
 30
0.0
 40
0.0939360873266151
 50
45.463486926772532
 51
88.250243457849706
  0
ARC
  5
376
  8
DATA
  6
CONTINUOUS
 62
     7
 10
67.86937066207642
 20
149.38584592070799
 30
0.0
 40
0.2513020227890503
 50
19.432373453202452
 51
46.016890812885649
  0
ARC
  5
377
  8
DATA
  6
CONTINUOUS
 62
     7
 10
63.191295457028893
 20
147.013084834399
 30
0.0
 40
5.2462599717403284
 50
5.7129417375122022
 51
8.7906971411359294
  0
LINE
  5
378
  8
DATA
  6
CONTINUOUS
 62
     7
 10
152.12991359978449
 20
150.12432330281931
 30
0.0
 11
152.12451938886761
 21
150.12817243777769
 31
0.0
  0
LINE
  5
379
  8
DATA
  6
CONTINUOUS
 62
     7
 10
135.4332044352675
 20
104.6341759676469
 30
0.0
 11
135.93720342726741
 21
104.6341759676469
 31
0.0
  0
LINE
  5
37A
  8
DATA
  6
CONTINUOUS
 62
     7
 10
135.93720342726741
 20
107.1541709276469
 30
0.0
 11
135.4332044352675
 21
107.1541709276469
 31
0.0
  0
LINE
  5
37B
  8
DATA
  6
CONTINUOUS
 62
     7
 10
159.1211826624675
 20
107.1541709276469
 30
0.0
 11
158.61718367046751
 21
107.1541709276469
 31
0.0
  0
LINE
  5
37C
  8
DATA
  6
CONTINUOUS
 62
     7
 10
158.61718367046751
 20
104.6341759676469
 30
0.0
 11
159.1211826624675
 21
104.6341759676469
 31
0.0
  0
LINE
  5
37D
  8
DATA
  6
CONTINUOUS
 62
     7
 10
135.4332044352675
 20
104.6341759676469
 30
0.0
 11
135.4332044352675
 21
107.1541709276469
 31
0.0
  0
LINE
  5
37E
  8
DATA
  6
CONTINUOUS
 62
     7
 10
135.93720342726741
 20
104.6341759676469
 30
0.0
 11
135.93720342726741
 21
107.1541709276469
 31
0.0
  0
LINE
  5
37F
  8
DATA
  6
CONTINUOUS
 62
     7
 10
158.61718367046751
 20
104.6341759676469
 30
0.0
 11
158.61718367046751
 21
107.1541709276469
 31
0.0
  0
LINE
  5
380
  8
DATA
  6
CONTINUOUS
 62
     7
 10
159.1211826624675
 20
104.6341759676469
 30
0.0
 11
159.1211826624675
 21
107.1541709276469
 31
0.0
  0
ARC
  5
381
  8
DATA
  6
CONTINUOUS
 62
     7
 10
65.019436576704067
 20
111.08775827427191
 30
0.0
 40
0.5042400631604825
 50
121.2074109568383
 51
179.972143806426
  0
ARC
  5
382
  8
DATA
  6
CONTINUOUS
 62
     7
 10
65.019036476535618
 20
111.08922506021911
 30
0.0
 40
0.5027783918036297
 50
89.981870530265141
 51
121.25502188573481
  0
ARC
  5
383
  8
DATA
  6
CONTINUOUS
 62
     7
 10
65.018704568842494
 20
111.0944377222246
 30
0.0
 40
0.7642575945040486
 50
89.963190398595373
 51
109.1829894676288
  0
ARC
  5
384
  8
DATA
  6
CONTINUOUS
 62
     7
 10
65.400811799434123
 20
111.13833951495219
 30
0.0
 40
0.9982937457580494
 50
164.20925601592199
 51
183.17776888379069
  0
ARC
  5
385
  8
DATA
  6
CONTINUOUS
 62
     7
 10
65.129943195364149
 20
111.2067728361759
 30
0.0
 40
0.7190677376952711
 50
139.617220022612
 51
163.5830108923019
  0
ARC
  5
386
  8
DATA
  6
CONTINUOUS
 62
     7
 10
65.263024213748309
 20
110.9852770886838
 30
0.0
 40
0.9674689061291271
 50
120.8040428745777
 51
134.7255163306873
  0
ARC
  5
387
  8
DATA
  6
CONTINUOUS
 62
     7
 10
67.035193969884446
 20
111.0880058635999
 30
0.0
 40
0.5039965552594128
 50
359.99972298364452
 51
90.000277016354715
  0
ARC
  5
388
  8
DATA
  6
CONTINUOUS
 62
     7
 10
67.035279850924283
 20
111.0883512875079
 30
0.0
 40
0.7703340676082053
 50
71.003477179269041
 51
90.006568885676003
  0
ARC
  5
389
  8
DATA
  6
CONTINUOUS
 62
     7
 10
66.807713468138161
 20
111.15214768023409
 30
0.0
 40
0.8450662543337093
 50
355.64657778418939
 51
28.931601259449621
  0
ARC
  5
38A
  8
DATA
  6
CONTINUOUS
 62
     7
 10
67.018174881828216
 20
111.2817348050246
 30
0.0
 40
0.5982936149364632
 50
27.820608861861849
 51
63.404305570567352
  0
LINE
  5
38B
  8
DATA
  6
CONTINUOUS
 62
     7
 10
63.313029481941811
 20
102.5584577208047
 30
0.0
 11
63.277465962624291
 21
102.8809789848178
 31
0.0
  0
LINE
  5
38C
  8
DATA
  6
CONTINUOUS
 62
     7
 10
63.678472829752963
 20
102.68595486035279
 30
0.0
 11
63.642895549138053
 21
102.9654906396534
 31
0.0
  0
ARC
  5
38D
  8
DATA
  6
CONTINUOUS
 62
     7
 10
61.462198629854001
 20
101.6164368700462
 30
0.0
 40
2.5642513775108551
 50
31.74235369449843
 51
47.756256719919087
  0
ARC
  5
38E
  8
DATA
  6
CONTINUOUS
 62
     7
 10
54.69215783235304
 20
101.96808756003939
 30
0.0
 40
8.6336150230146966
 50
6.0416766864671576
 51
10.319786809287679
  0
LINE
  5
38F
  8
DATA
  6
CONTINUOUS
 62
     7
 10
68.375928704337952
 20
102.6859549020534
 30
0.0
 11
68.411497835918425
 21
102.9654788060424
 31
0.0
  0
ARC
  5
390
  8
DATA
  6
CONTINUOUS
 62
     7
 10
70.591184094986289
 20
101.61727217801121
 30
0.0
 40
2.5629577863748718
 50
132.23967542875749
 51
148.26171415682401
  0
ARC
  5
391
  8
DATA
  6
CONTINUOUS
 62
     7
 10
79.712044264028023
 20
101.5889402273928
 30
0.0
 40
11.013443135408959
 50
169.9295967522618
 51
174.94969408805409
  0
ARC
  5
392
  8
DATA
  6
CONTINUOUS
 62
     7
 10
64.433773250270178
 20
100.6976971977854
 30
0.0
 40
0.4412081862654447
 50
186.93214173729109
 51
211.96892929121569
  0
ARC
  5
393
  8
DATA
  6
CONTINUOUS
 62
     7
 10
64.193607238815559
 20
100.5507849481957
 30
0.0
 40
0.159702812529779
 50
212.87566516236359
 51
237.08794888521771
  0
ARC
  5
394
  8
DATA
  6
CONTINUOUS
 62
     7
 10
64.153275625966046
 20
100.4897947749409
 30
0.0
 40
0.0865984548039603
 50
237.31151132996359
 51
268.81162074062138
  0
ARC
  5
395
  8
DATA
  6
CONTINUOUS
 62
     7
 10
65.620848454421321
 20
100.6370305379269
 30
0.0
 40
1.994092956758325
 50
183.4529487981911
 51
193.18384011220849
  0
ARC
  5
396
  8
DATA
  6
CONTINUOUS
 62
     7
 10
64.189811750426585
 20
100.2950322752769
 30
0.0
 40
0.5228136599117491
 50
192.460651203298
 51
208.75102598476269
  0
ARC
  5
397
  8
DATA
  6
CONTINUOUS
 62
     7
 10
63.832548809734099
 20
100.1002852163044
 30
0.0
 40
0.1159258362035839
 50
209.29806034601151
 51
234.83885127815429
  0
ARC
  5
398
  8
DATA
  6
CONTINUOUS
 62
     7
 10
63.78430795727364
 20
100.03418742530521
 30
0.0
 40
0.0341353681225934
 50
237.14629297654329
 51
271.6996286225891
  0
ARC
  5
399
  8
DATA
  6
CONTINUOUS
 62
     7
 10
67.896555591953273
 20
100.50572913012211
 30
0.0
 40
0.1026915183077622
 50
273.33275411612829
 51
319.06550288072538
  0
ARC
  5
39A
  8
DATA
  6
CONTINUOUS
 62
     7
 10
67.784972877767359
 20
100.6119964644834
 30
0.0
 40
0.2567138141481002
 50
317.46455786463389
 51
337.56828472458369
  0
ARC
  5
39B
  8
DATA
  6
CONTINUOUS
 62
     7
 10
67.529467061968703
 20
100.7216401336878
 30
0.0
 40
0.5347386984702193
 50
337.15565351021422
 51
351.69840360447188
  0
ARC
  5
39C
  8
DATA
  6
CONTINUOUS
 62
     7
 10
66.512258887864846
 20
100.6277468878957
 30
0.0
 40
1.9149618258684371
 50
345.83797485269849
 51
356.68245656483401
  0
ARC
  5
39D
  8
DATA
  6
CONTINUOUS
 62
     7
 10
67.89217724483639
 20
100.2802686231354
 30
0.0
 40
0.4919671280645019
 50
332.59540646827838
 51
345.75647014632341
  0
ARC
  5
39E
  8
DATA
  6
CONTINUOUS
 62
     7
 10
68.203628775684322
 20
100.11573218220531
 30
0.0
 40
0.1397622801072774
 50
310.67724469921058
 51
333.71047038005298
  0
ARC
  5
39F
  8
DATA
  6
CONTINUOUS
 62
     7
 10
68.265891405872352
 20
100.04582071994859
 30
0.0
 40
0.0459144471158725
 50
274.42209321891789
 51
308.58998864274542
  0
ENDSEC
  0
EOF
