  0
SECTION
  2
HEADER
  9
$ACADVER
  1
AC1009
  9
$INSBASE
 10
0.0
 20
0.0
 30
0.0
  9
$EXTMIN
 10
-270.01647823492112
 20
-405.63813026041657
 30
-0.0015258207003583
  9
$EXTMAX
 10
270.0164807494923
 20
397.04201860939071
 30
0.0000000349246037
  9
$LIMMIN
 10
0.0
 20
0.0
  9
$LIMMAX
 10
0.0
 20
0.0
  9
$ORTHOMODE
 70
     0
  9
$REGENMODE
 70
     1
  9
$FILLMODE
 70
     1
  9
$QTEXTMODE
 70
     0
  9
$MIRRTEXT
 70
     1
  9
$DRAGMODE
 70
     2
  9
$LTSCALE
 40
15.24
  9
$OSMODE
 70
   231
  9
$ATTMODE
 70
     1
  9
$TEXTSIZE
 40
0.0
  9
$TRACEWID
 40
1.0
  9
$TEXTSTYLE
  7
STANDARD
  9
$CLAYER
  8
DATA
  9
$CELTYPE
  6
BYLAYER
  9
$CECOLOR
 62
   256
  9
$DIMSCALE
 40
1.0
  9
$DIMASZ
 40
0.18
  9
$DIMEXO
 40
0.0625
  9
$DIMDLI
 40
0.38
  9
$DIMRND
 40
0.0
  9
$DIMDLE
 40
0.0
  9
$DIMEXE
 40
0.18
  9
$DIMTP
 40
0.0
  9
$DIMTM
 40
0.0
  9
$DIMTXT
 40
0.18
  9
$DIMCEN
 40
0.09
  9
$DIMTSZ
 40
0.0
  9
$DIMTOL
 70
     0
  9
$DIMLIM
 70
     0
  9
$DIMTIH
 70
     1
  9
$DIMTOH
 70
     1
  9
$DIMSE1
 70
     0
  9
$DIMSE2
 70
     0
  9
$DIMTAD
 70
     0
  9
$DIMZIN
 70
     0
  9
$DIMBLK
  1

  9
$DIMASO
 70
     1
  9
$DIMSHO
 70
     1
  9
$DIMPOST
  1

  9
$DIMAPOST
  1

  9
$DIMALT
 70
     0
  9
$DIMALTD
 70
     2
  9
$DIMALTF
 40
25.399999999999999
  9
$DIMLFAC
 40
1.0
  9
$DIMTOFL
 70
     0
  9
$DIMTVP
 40
0.0
  9
$DIMTIX
 70
     0
  9
$DIMSOXD
 70
     0
  9
$DIMSAH
 70
     0
  9
$DIMBLK1
  1

  9
$DIMBLK2
  1

  9
$DIMSTYLE
  2
STANDARD
  9
$DIMCLRD
 70
     0
  9
$DIMCLRE
 70
     0
  9
$DIMCLRT
 70
     0
  9
$DIMTFAC
 40
1.0
  9
$DIMGAP
 40
0.09
  9
$LUNITS
 70
     2
  9
$LUPREC
 70
     4
  9
$SKETCHINC
 40
0.1
  9
$FILLETRAD
 40
0.0
  9
$AUNITS
 70
     0
  9
$AUPREC
 70
     0
  9
$MENU
  1
acad
  9
$ELEVATION
 40
0.0
  9
$PELEVATION
 40
0.0
  9
$THICKNESS
 40
0.0
  9
$LIMCHECK
 70
     0
  9
$BLIPMODE
 70
     0
  9
$CHAMFERA
 40
0.0
  9
$CHAMFERB
 40
0.0
  9
$SKPOLY
 70
     0
  9
$TDCREATE
 40
2456303.6055787038
  9
$TDUPDATE
 40
2456303.6111526042
  9
$TDINDWG
 40
0.0003365162
  9
$TDUSRTIMER
 40
0.0003365162
  9
$USRTIMER
 70
     1
  9
$ANGBASE
 50
0.0
  9
$ANGDIR
 70
     0
  9
$PDMODE
 70
     1
  9
$PDSIZE
 40
-2.0
  9
$PLINEWID
 40
0.0
  9
$COORDS
 70
     2
  9
$SPLFRAME
 70
     0
  9
$SPLINETYPE
 70
     6
  9
$SPLINESEGS
 70
     8
  9
$ATTDIA
 70
     0
  9
$ATTREQ
 70
     1
  9
$HANDLING
 70
     1
  9
$HANDSEED
  5
204
  9
$SURFTAB1
 70
     6
  9
$SURFTAB2
 70
     6
  9
$SURFTYPE
 70
     6
  9
$SURFU
 70
     6
  9
$SURFV
 70
     6
  9
$UCSNAME
  2

  9
$UCSORG
 10
0.0
 20
0.0
 30
0.0
  9
$UCSXDIR
 10
1.0
 20
0.0
 30
0.0
  9
$UCSYDIR
 10
0.0
 20
1.0
 30
0.0
  9
$PUCSNAME
  2

  9
$PUCSORG
 10
0.0
 20
0.0
 30
0.0
  9
$PUCSXDIR
 10
1.0
 20
0.0
 30
0.0
  9
$PUCSYDIR
 10
0.0
 20
1.0
 30
0.0
  9
$USERI1
 70
     0
  9
$USERI2
 70
     0
  9
$USERI3
 70
     0
  9
$USERI4
 70
     0
  9
$USERI5
 70
     0
  9
$USERR1
 40
0.0
  9
$USERR2
 40
0.0
  9
$USERR3
 40
0.0
  9
$USERR4
 40
0.0
  9
$USERR5
 40
0.0
  9
$WORLDVIEW
 70
     1
  9
$SHADEDGE
 70
     3
  9
$SHADEDIF
 70
    70
  9
$TILEMODE
 70
     1
  9
$MAXACTVP
 70
    64
  9
$PLIMCHECK
 70
     0
  9
$PEXTMIN
 10
1.0000000000000000E+020
 20
1.0000000000000000E+020
 30
1.0000000000000000E+020
  9
$PEXTMAX
 10
-1.0000000000000000E+020
 20
-1.0000000000000000E+020
 30
-1.0000000000000000E+020
  9
$PLIMMIN
 10
0.0
 20
0.0
  9
$PLIMMAX
 10
12.0
 20
9.0
  9
$UNITMODE
 70
     0
  9
$VISRETAIN
 70
     0
  9
$PLINEGEN
 70
     1
  9
$PSLTSCALE
 70
     0
  0
ENDSEC
  0
SECTION
  2
TABLES
  0
TABLE
  2
VPORT
 70
     1
  0
VPORT
  2
*ACTIVE
 70
     0
 10
0.0
 20
0.0
 11
1.0
 21
1.0
 12
0.0000012572857031
 22
-3.5087834126817361
 13
0.0
 23
0.0
 14
1.0
 24
1.0
 15
0.0
 25
0.0
 16
0.0
 26
0.0
 36
1.0
 17
0.0
 27
0.0
 37
0.0
 40
807.50188317099537
 41
2.2333333333333329
 42
50.0
 43
0.0
 44
0.0
 50
0.0
 51
0.0
 71
     0
 72
  2000
 73
     1
 74
     1
 75
     0
 76
     0
 77
     0
 78
     0
  0
ENDTAB
  0
TABLE
  2
LTYPE
 70
    12
  0
LTYPE
  2
CONTINUOUS
 70
     0
  3
Solid line
 72
    65
 73
     0
 40
0.0
  0
LTYPE
  2
PHANTOM2
 70
     0
  3
___ _ _ ___ _ _ ___ _ _ ___ _ _
 72
    65
 73
     6
 40
1.25
 49
0.625
 49
-0.125
 49
0.125
 49
-0.125
 49
0.125
 49
-0.125
  0
ENDTAB
  0
TABLE
  2
LAYER
 70
     6
  0
LAYER
  2
0
 70
     0
 62
     7
  6
CONTINUOUS
  0
LAYER
  2
DATA
 70
     0
 62
     7
  6
CONTINUOUS
  0
LAYER
  2
HIBINO-BASE
 70
     0
 62
     7
  6
CONTINUOUS
  0
LAYER
  2
SPEC
 70
     0
 62
     7
  6
CONTINUOUS
  0
LAYER
  2
DIMNSIONS
 70
     0
 62
     7
  6
CONTINUOUS
  0
ENDTAB
  0
TABLE
  2
STYLE
 70
     3
  0
STYLE
  2
STANDARD
 70
     0
 40
0.0
 41
1.0
 50
0.0
 71
     0
 42
0.0
  3
txt
  4
BIGFONT.SHX
  0
ENDTAB
  0
TABLE
  2
VIEW
 70
     0
  0
ENDTAB
  0
TABLE
  2
UCS
 70
     0
  0
ENDTAB
  0
TABLE
  2
APPID
 70
     4
  0
APPID
  2
ACAD
 70
     0
  0
APPID
  2
ACADANNOTATIVE
 70
     0
  0
APPID
  2
ACAD_NAV_VCDISPLAY
 70
     0
  0
APPID
  2
ACAD_MLEADERVER
 70
     0
  0
ENDTAB
  0
TABLE
  2
DIMSTYLE
 70
     2
  0
DIMSTYLE
  2
STANDARD
 70
     0
  3

  4

  5

  6

  7

 40
1.0
 41
0.18
 42
0.0625
 43
0.38
 44
0.18
 45
0.0
 46
0.0
 47
0.0
 48
0.0
140
0.18
141
0.09
142
0.0
143
25.399999999999999
144
1.0
145
0.0
146
1.0
147
0.09
 71
     0
 72
     0
 73
     1
 74
     1
 75
     0
 76
     0
 77
     0
 78
     0
170
     0
171
     2
172
     0
173
     0
174
     0
175
     0
176
     0
177
     0
178
     0
  0
ENDTAB
  0
ENDSEC
  0
SECTION
  2
BLOCKS
  0
BLOCK
  8
0
  2
$MODEL_SPACE
 70
     0
 10
0.0
 20
0.0
 30
0.0
  3
$MODEL_SPACE
  1

  0
ENDBLK
  5
196
  8
0
  0
BLOCK
 67
     1
  8
0
  2
$PAPER_SPACE
 70
     0
 10
0.0
 20
0.0
 30
0.0
  3
$PAPER_SPACE
  1

  0
ENDBLK
  5
192
 67
     1
  8
0
  0
ENDSEC
  0
SECTION
  2
ENTITIES
  0
LINE
  5
2D
  8
HIBINO-BASE
  6
CONTINUOUS
 62
     7
 10
-269.99999999999989
 20
397.01757055555572
 30
0.0
 11
269.99999999999989
 21
397.01757055555572
 31
0.0
  0
LINE
  5
2E
  8
HIBINO-BASE
  6
CONTINUOUS
 62
     7
 10
269.99999999999989
 20
-382.98242944444428
 30
0.0
 11
-269.99999999999989
 21
-382.98242944444428
 31
0.0
  0
LINE
  5
2F
  8
HIBINO-BASE
  6
CONTINUOUS
 62
     7
 10
-269.99999999999989
 20
-382.98242944444428
 30
0.0
 11
-269.99999999999989
 21
397.01757055555572
 31
0.0
  0
LINE
  5
30
  8
HIBINO-BASE
  6
CONTINUOUS
 62
     7
 10
269.99999999999989
 20
397.01757055555572
 30
0.0
 11
269.99999999999989
 21
-382.98242944444428
 31
0.0
  0
LINE
  5
31
  8
HIBINO-BASE
  6
CONTINUOUS
 62
     7
 10
0.0
 20
-315.48242944444439
 30
0.0
 11
269.99999999999989
 21
-315.48242944444439
 31
0.0
  0
LINE
  5
32
  8
HIBINO-BASE
  6
CONTINUOUS
 62
     7
 10
0.0
 20
-382.98242944444428
 30
0.0
 11
0.0
 21
-315.48242944444439
 31
0.0
  0
TEXT
  5
33
  8
HIBINO-BASE
 62
     7
 10
2.6999999999999988
 20
-323.00850944444443
 30
0.0
 40
4.8865234374999993
  1
NOTE
 41
0.7
 11
2.7000000000000002
 21
-318.12198600694438
 31
0.0
 73
     3
  0
LINE
  5
34
  8
HIBINO-BASE
  6
CONTINUOUS
 62
     7
 10
105.0
 20
-382.98242944444428
 30
0.0
 11
105.0
 21
-315.48242944444439
 31
0.0
  0
TEXT
  5
35
  8
HIBINO-BASE
 62
     7
 10
107.7
 20
-323.00850944444443
 30
0.0
 40
4.8865234374999993
  1
TITLE
 41
0.7
 11
107.7
 21
-318.12198600694438
 31
0.0
 73
     3
  0
LINE
  5
36
  8
HIBINO-BASE
  6
CONTINUOUS
 62
     7
 10
0.0
 20
-352.98242944444439
 30
0.0
 11
269.99999999999989
 21
-352.98242944444439
 31
0.0
  0
TEXT
  5
37
  8
HIBINO-BASE
 62
     7
 10
145.19999999999999
 20
-360.33954944444429
 30
0.0
 40
4.8865234374999993
  1
DRAWN
 41
0.7
 11
145.19999999999999
 21
-355.4530260069443
 31
0.0
 73
     3
  0
TEXT
  5
38
  8
HIBINO-BASE
 62
     7
 10
70.199999999999989
 20
-360.33954944444429
 30
0.0
 40
4.8865234374999993
  1
DATE
 41
0.7
 11
70.199999999999989
 21
-355.4530260069443
 31
0.0
 73
     3
  0
TEXT
  5
39
  8
HIBINO-BASE
 62
     7
 10
40.200000000000003
 20
-360.33954944444429
 30
0.0
 40
4.8865234374999993
  1
SCALE
 41
0.7
 11
40.200000000000003
 21
-355.4530260069443
 31
0.0
 73
     3
  0
TEXT
  5
3A
  8
HIBINO-BASE
 62
     7
 10
107.7
 20
-360.33954944444429
 30
0.0
 40
4.8865234374999993
  1
DESIGN
 41
0.7
 11
107.7
 21
-355.4530260069443
 31
0.0
 73
     3
  0
TEXT
  5
3B
  8
HIBINO-BASE
 62
     7
 10
220.19999999999999
 20
-360.33954944444429
 30
0.0
 40
4.8865234374999993
  1
DRAWING NO.
 41
0.7
 11
220.19999999999999
 21
-355.4530260069443
 31
0.0
 73
     3
  0
TEXT
  5
3C
  8
HIBINO-BASE
 62
     7
 10
182.69999999999999
 20
-360.33954944444429
 30
0.0
 40
4.8865234374999993
  1
CHECK
 41
0.7
 11
182.69999999999999
 21
-355.4530260069443
 31
0.0
 73
     3
  0
LINE
  5
3D
  8
HIBINO-BASE
  6
CONTINUOUS
 62
     7
 10
43.124999999999993
 20
-379.23242944444428
 30
0.0
 11
54.375
 21
-367.98242944444428
 31
0.0
  0
TEXT
  5
3E
  8
HIBINO-BASE
 62
     7
 10
41.249999999999993
 20
-371.30925944444448
 30
0.0
 40
4.8865234374999993
  1
1
 41
0.7
 11
41.249999999999993
 21
-366.42273600694449
 31
0.0
 73
     3
  0
LINE
  5
3F
  8
HIBINO-BASE
  6
CONTINUOUS
 62
     7
 10
37.5
 20
-382.98242944444428
 30
0.0
 11
37.5
 21
-352.98242944444439
 31
0.0
  0
LINE
  5
40
  8
HIBINO-BASE
  6
CONTINUOUS
 62
     7
 10
67.499999999999986
 20
-382.98242944444428
 30
0.0
 11
67.499999999999986
 21
-352.98242944444439
 31
0.0
  0
LINE
  5
41
  8
HIBINO-BASE
  6
CONTINUOUS
 62
     7
 10
142.5
 20
-352.98242944444439
 30
0.0
 11
142.5
 21
-382.98242944444428
 31
0.0
  0
LINE
  5
42
  8
HIBINO-BASE
  6
CONTINUOUS
 62
     7
 10
217.5
 20
-352.98242944444439
 30
0.0
 11
217.5
 21
-382.98242944444428
 31
0.0
  0
LINE
  5
43
  8
HIBINO-BASE
  6
CONTINUOUS
 62
     7
 10
180.0
 20
-382.98242944444428
 30
0.0
 11
180.0
 21
-352.98242944444439
 31
0.0
  0
TEXT
  5
44
  8
HIBINO-BASE
 62
     7
 10
70.06962
 20
-374.39148944444452
 30
0.0
 40
4.8865234374999993
  1
'12.11.
 41
0.7
 11
70.06962
 21
-369.50496600694453
 31
0.0
 73
     3
  0
TEXT
  5
45
  8
HIBINO-BASE
 62
     7
 10
52.5
 20
-376.93425944444448
 30
0.0
 40
4.8865234374999993
  1
3
 41
0.7
 11
52.5
 21
-372.04773600694449
 31
0.0
 73
     3
  0
TEXT
  5
46
  8
HIBINO-BASE
 62
     7
 10
147.01743003310381
 20
-374.39148944444452
 30
0.0
 40
4.8865234374999993
  1
Ootake
 41
0.7
 11
147.01743003310381
 21
-369.50496600694453
 31
0.0
 73
     3
  0
TEXT
  5
47
  8
HIBINO-BASE
 62
     7
 10
11.65000000000005
 20
-377.05442944444439
 30
0.0
 40
9.7730468749999986
  1
A4
 41
0.7
 11
11.65000000000005
 21
-367.28138256944442
 31
0.0
 73
     3
  0
TEXT
  5
48
  8
HIBINO-BASE
 62
     7
 10
2.874999999999996
 20
-360.8407944444445
 30
0.0
 40
4.8865234374999993
  1
PAPER SIZE
 41
0.7
 11
2.874999999999996
 21
-355.95427100694451
 31
0.0
 73
     3
  0
TEXT
  5
49
  8
HIBINO-BASE
 62
     7
 10
-248.44800000000001
 20
-402.1089744444443
 30
0.0
 40
10.58746744791666
  1
Hibino-Intersound Corporation
 41
0.7
 11
-248.44800000000001
 21
-391.52150699652782
 31
0.0
 73
     3
  0
TEXT
  5
4A
  8
HIBINO-BASE
 62
     7
 10
42.07300250172937
 20
-402.1089744444443
 30
0.0
 40
10.58746744791666
  1
ヒビノインターサウンド株式会社
 41
0.7
 11
42.07300250172937
 21
-391.52150699652782
 31
0.0
 73
     3
  0
LINE
  5
4B
  8
SPEC
  6
CONTINUOUS
 62
     7
 10
-247.5
 20
367.01757055555538
 30
0.0
 11
195.0
 21
367.01757055555538
 31
0.0
  0
LINE
  5
4C
  8
SPEC
  6
CONTINUOUS
 62
     7
 10
-247.5
 20
355.76757055555549
 30
0.0
 11
195.0
 21
355.76757055555549
 31
0.0
  0
LINE
  5
4D
  8
SPEC
  6
CONTINUOUS
 62
     7
 10
-247.5
 20
310.76757055555549
 30
0.0
 11
195.0
 21
310.76757055555549
 31
0.0
  0
LINE
  5
4E
  8
SPEC
  6
CONTINUOUS
 62
     7
 10
-247.5
 20
322.01757055555549
 30
0.0
 11
195.0
 21
322.01757055555549
 31
0.0
  0
LINE
  5
4F
  8
SPEC
  6
CONTINUOUS
 62
     7
 10
-247.5
 20
333.26757055555549
 30
0.0
 11
195.0
 21
333.26757055555549
 31
0.0
  0
LINE
  5
50
  8
SPEC
  6
CONTINUOUS
 62
     7
 10
-247.5
 20
299.51757055555549
 30
0.0
 11
195.0
 21
299.51757055555549
 31
0.0
  0
LINE
  5
51
  8
SPEC
  6
CONTINUOUS
 62
     7
 10
-247.5
 20
277.01757055555538
 30
0.0
 11
195.0
 21
277.01757055555538
 31
0.0
  0
LINE
  5
52
  8
SPEC
  6
CONTINUOUS
 62
     7
 10
-247.5
 20
288.26757055555549
 30
0.0
 11
195.0
 21
288.26757055555549
 31
0.0
  0
LINE
  5
53
  8
SPEC
  6
CONTINUOUS
 62
     7
 10
-247.5
 20
344.51757055555549
 30
0.0
 11
195.0
 21
344.51757055555549
 31
0.0
  0
LINE
  5
54
  8
SPEC
  6
CONTINUOUS
 62
     7
 10
-247.5
 20
367.01757055555538
 30
0.0
 11
-247.5
 21
277.01757055555538
 31
0.0
  0
TEXT
  5
55
  8
SPEC
 62
     7
 10
-243.75
 20
371.19738055555553
 30
0.0
 40
7.3297851562499989
  1
仕様
 41
0.7
 11
-243.75
 21
378.52716571180548
 31
0.0
 73
     3
  0
LINE
  5
56
  8
SPEC
  6
CONTINUOUS
 62
     7
 10
-150.0
 20
367.01757055555538
 30
0.0
 11
-150.0
 21
277.01757055555538
 31
0.0
  0
LINE
  5
57
  8
SPEC
  6
CONTINUOUS
 62
     7
 10
195.0
 20
367.01757055555538
 30
0.0
 11
195.0
 21
277.01757055555538
 31
0.0
  0
TEXT
  5
58
  8
SPEC
 62
     7
 10
-244.9588510458704
 20
280.5165780003681
 30
0.0
 40
5.700933749999999
  1
重量
 41
0.7
 11
-244.9588510458704
 21
286.21751175036809
 31
0.0
 73
     3
  0
TEXT
  5
59
  8
SPEC
 62
     7
 10
-147.3924845185106
 20
279.79168615989931
 30
0.0
 40
5.700933749999999
  1
950g
 41
0.7
 11
-147.3924845185106
 21
285.4926199098993
 31
0.0
 73
     3
  0
TEXT
  5
5A
  8
SPEC
 62
     7
 10
-244.83564620438321
 20
358.36985225477241
 30
0.0
 40
5.700933749999999
  1
最大ピクセルクロック
 41
0.7
 11
-244.83564620438321
 21
364.0707860047724
 31
0.0
 73
     3
  0
TEXT
  5
5B
  8
SPEC
 62
     7
 10
-147.2999999999999
 20
358.28278090067579
 30
0.0
 40
5.700933749999999
  1
300MHz
 41
0.7
 11
-147.2999999999999
 21
363.98371465067572
 31
0.0
 73
     3
  0
TEXT
  5
5C
  8
SPEC
 62
     7
 10
-244.74662838397319
 20
347.37086089218923
 30
0.0
 40
5.700933749999999
  1
最大データレート
 41
0.7
 11
-244.74662838397319
 21
353.07179464218922
 31
0.0
 73
     3
  0
TEXT
  5
5D
  8
SPEC
 62
     7
 10
-147.6150023633387
 20
347.42672598802051
 30
0.0
 40
5.700933749999999
  1
10.8Gbps
 41
0.7
 11
-147.6150023633387
 21
353.1276597380205
 31
0.0
 73
     3
  0
TEXT
  5
5E
  8
SPEC
 62
     7
 10
-244.8533065881729
 20
336.26545232942613
 30
0.0
 40
5.700933749999999
  1
最大解像度
 41
0.7
 11
-244.8533065881729
 21
341.96638607942612
 31
0.0
 73
     3
  0
TEXT
  5
5F
  8
SPEC
 62
     7
 10
-147.1820899344367
 20
336.06454258542459
 30
0.0
 40
5.700933749999999
  1
2560\U+00D71600
 41
0.7
 11
-147.1820899344367
 21
341.76547633542458
 31
0.0
 73
     3
  0
TEXT
  5
60
  8
SPEC
 62
     7
 10
-246.13104098871969
 20
324.90070432067449
 30
0.0
 40
5.700933749999999
  1
ビデオ入力端子
 41
0.7
 11
-246.13104098871969
 21
330.60163807067448
 31
0.0
 73
     3
  0
TEXT
  5
61
  8
SPEC
 62
     7
 10
-147.6404215042057
 20
324.43325265669768
 30
0.0
 40
5.700933749999999
  1
ディスプレイポート(メス)
 41
0.7
 11
-147.6404215042057
 21
330.13418640669772
 31
0.0
 73
     3
  0
TEXT
  5
62
  8
SPEC
 62
     7
 10
-246.07624248139129
 20
313.8099102833944
 30
0.0
 40
5.700933749999999
  1
ビデオ出力端子
 41
0.7
 11
-246.07624248139129
 21
319.51084403339439
 31
0.0
 73
     3
  0
TEXT
  5
63
  8
SPEC
 62
     7
 10
-245.06555989801981
 20
302.51467389515028
 30
0.0
 40
5.700933749999999
  1
電源
 41
0.7
 11
-245.06555989801981
 21
308.21560764515033
 31
0.0
 73
     3
  0
TEXT
  5
64
  8
SPEC
 62
     7
 10
-147.32321999808599
 20
302.25090256246961
 30
0.0
 40
5.700933749999999
  1
DC5V/3A、最大15W
 41
0.7
 11
-147.32321999808599
 21
307.95183631246948
 31
0.0
 73
     3
  0
TEXT
  5
65
  8
SPEC
 62
     7
 10
-245.15364845393671
 20
291.83025257539458
 30
0.0
 40
5.700933749999999
  1
寸法
 41
0.7
 11
-245.15364845393671
 21
297.53118632539457
 31
0.0
 73
     3
  0
TEXT
  5
66
  8
SPEC
 62
     7
 10
-147.36944800417101
 20
291.2320425928952
 30
0.0
 40
5.700933749999999
  1
272(W)\U+00D726(H)\U+00D7123(D)mm
 41
0.7
 11
-147.36944800417101
 21
296.93297634289519
 31
0.0
 73
     3
  0
TEXT
  5
67
  8
SPEC
 62
     7
 10
-147.66616109969399
 20
313.31149940528832
 30
0.0
 40
5.700933749999999
  1
ディスプレイポート(メス)\U+00D74
 41
0.7
 11
-147.66616109969399
 21
319.01243315528831
 31
0.0
 73
     3
  0
TEXT
  5
68
  8
DIMNSIONS
 62
     7
 10
-60.0
 20
-346.17395944444439
 30
0.0
 40
7.3297851562499989
  1
(単位：mm)
 41
0.7
 11
-60.0
 21
-338.84417428819449
 31
0.0
 73
     3
  0
LINE
  5
69
  8
DIMNSIONS
  6
CONTINUOUS
 62
     7
 10
-206.0
 20
-225.0
 30
0.0
 11
-236.0
 21
-225.0
 31
0.0
  0
LINE
  5
6A
  8
DIMNSIONS
  6
CONTINUOUS
 62
     7
 10
-206.0
 20
-199.0
 30
0.0
 11
-236.0
 21
-199.0
 31
0.0
  0
LINE
  5
6B
  8
DIMNSIONS
  6
CONTINUOUS
 62
     7
 10
-230.0
 20
-225.0
 30
0.0
 11
-230.0
 21
-199.0
 31
0.0
  0
LINE
  5
6C
  8
DIMNSIONS
  6
CONTINUOUS
 62
     7
 10
-230.0
 20
-225.0
 30
0.0
 11
-232.01011938545071
 21
-217.49813232421869
 31
0.0
  0
LINE
  5
6D
  8
DIMNSIONS
  6
CONTINUOUS
 62
     7
 10
-230.0
 20
-225.0
 30
0.0
 11
-227.98988061454929
 21
-217.49813232421869
 31
0.0
  0
LINE
  5
6E
  8
DIMNSIONS
  6
CONTINUOUS
 62
     7
 10
-230.0
 20
-199.0
 30
0.0
 11
-227.98988061454929
 21
-206.50186767578131
 31
0.0
  0
LINE
  5
6F
  8
DIMNSIONS
  6
CONTINUOUS
 62
     7
 10
-230.0
 20
-199.0
 30
0.0
 11
-232.01011938545071
 21
-206.50186767578131
 31
0.0
  0
TEXT
  5
70
  8
DIMNSIONS
 62
     7
 10
-232.9816666666666
 20
-217.2916666666666
 30
0.0
 40
8.1442057291666661
  1
26
 50
90.0
 41
0.7
 11
-241.12587239583331
 21
-217.2916666666666
 31
0.0
 73
     3
  0
LINE
  5
71
  8
DIMNSIONS
  6
CONTINUOUS
 62
     7
 10
-200.0
 20
-231.0
 30
0.0
 11
-200.0
 21
-251.0
 31
0.0
  0
LINE
  5
72
  8
DIMNSIONS
  6
CONTINUOUS
 62
     7
 10
72.0
 20
-231.0
 30
0.0
 11
72.0
 21
-251.0
 31
0.0
  0
LINE
  5
73
  8
DIMNSIONS
  6
CONTINUOUS
 62
     7
 10
-200.0
 20
-245.0
 30
0.0
 11
72.0
 21
-245.0
 31
0.0
  0
LINE
  5
74
  8
DIMNSIONS
  6
CONTINUOUS
 62
     7
 10
-200.0
 20
-245.0
 30
0.0
 11
-192.49813232421869
 21
-242.98988061454929
 31
0.0
  0
LINE
  5
75
  8
DIMNSIONS
  6
CONTINUOUS
 62
     7
 10
-200.0
 20
-245.0
 30
0.0
 11
-192.49813232421869
 21
-247.01011938545071
 31
0.0
  0
LINE
  5
76
  8
DIMNSIONS
  6
CONTINUOUS
 62
     7
 10
72.0
 20
-245.0
 30
0.0
 11
64.498132324218744
 21
-247.01011938545071
 31
0.0
  0
LINE
  5
77
  8
DIMNSIONS
  6
CONTINUOUS
 62
     7
 10
72.0
 20
-245.0
 30
0.0
 11
64.498132324218744
 21
-242.98988061454929
 31
0.0
  0
TEXT
  5
78
  8
DIMNSIONS
 62
     7
 10
-71.9375
 20
-242.01833333333329
 30
0.0
 40
8.1442057291666661
  1
272
 41
0.7
 11
-71.9375
 21
-233.8741276041666
 31
0.0
 73
     3
  0
LINE
  5
79
  8
DIMNSIONS
  6
CONTINUOUS
 62
     7
 10
-206.0
 20
-165.0
 30
0.0
 11
-236.0
 21
-165.0
 31
0.0
  0
LINE
  5
7A
  8
DIMNSIONS
  6
CONTINUOUS
 62
     7
 10
-206.0
 20
-42.0
 30
0.0
 11
-236.0
 21
-42.0
 31
0.0
  0
LINE
  5
7B
  8
DIMNSIONS
  6
CONTINUOUS
 62
     7
 10
-230.0
 20
-165.0
 30
0.0
 11
-230.0
 21
-42.0
 31
0.0
  0
LINE
  5
7C
  8
DIMNSIONS
  6
CONTINUOUS
 62
     7
 10
-230.0
 20
-165.0
 30
0.0
 11
-232.01011938545071
 21
-157.49813232421869
 31
0.0
  0
LINE
  5
7D
  8
DIMNSIONS
  6
CONTINUOUS
 62
     7
 10
-230.0
 20
-165.0
 30
0.0
 11
-227.98988061454929
 21
-157.49813232421869
 31
0.0
  0
LINE
  5
7E
  8
DIMNSIONS
  6
CONTINUOUS
 62
     7
 10
-230.0
 20
-42.0
 30
0.0
 11
-227.98988061454929
 21
-49.501867675781249
 31
0.0
  0
LINE
  5
7F
  8
DIMNSIONS
  6
CONTINUOUS
 62
     7
 10
-230.0
 20
-42.0
 30
0.0
 11
-232.01011938545071
 21
-49.501867675781249
 31
0.0
  0
TEXT
  5
80
  8
DIMNSIONS
 62
     7
 10
-232.9816666666666
 20
-111.4375
 30
0.0
 40
8.1442057291666661
  1
123
 50
90.0
 41
0.7
 11
-241.12587239583331
 21
-111.4375
 31
0.0
 73
     3
  0
LINE
  5
81
  8
DIMNSIONS
  6
CONTINUOUS
 62
     7
 10
-195.5
 20
-229.0
 30
0.0
 11
-236.0
 21
-229.0
 31
0.0
  0
LINE
  5
82
  8
DIMNSIONS
  6
CONTINUOUS
 62
     7
 10
-206.0
 20
-225.0
 30
0.0
 11
-236.0
 21
-225.0
 31
0.0
  0
LINE
  5
83
  8
DIMNSIONS
  6
CONTINUOUS
 62
     7
 10
-230.0
 20
-225.0
 30
0.0
 11
-230.0
 21
-229.0
 31
0.0
  0
LINE
  5
84
  8
DIMNSIONS
  6
CONTINUOUS
 62
     7
 10
-230.0
 20
-229.0
 30
0.0
 11
-230.0
 21
-253.2291666666666
 31
0.0
  0
LINE
  5
85
  8
DIMNSIONS
  6
CONTINUOUS
 62
     7
 10
-230.0
 20
-229.0
 30
0.0
 11
-227.98988061454929
 21
-236.50186767578131
 31
0.0
  0
LINE
  5
86
  8
DIMNSIONS
  6
CONTINUOUS
 62
     7
 10
-230.0
 20
-229.0
 30
0.0
 11
-232.01011938545071
 21
-236.50186767578131
 31
0.0
  0
LINE
  5
87
  8
DIMNSIONS
  6
CONTINUOUS
 62
     7
 10
-230.0
 20
-225.0
 30
0.0
 11
-230.0
 21
-210.0
 31
0.0
  0
LINE
  5
88
  8
DIMNSIONS
  6
CONTINUOUS
 62
     7
 10
-230.0
 20
-225.0
 30
0.0
 11
-232.01011938545071
 21
-217.49813232421869
 31
0.0
  0
LINE
  5
89
  8
DIMNSIONS
  6
CONTINUOUS
 62
     7
 10
-230.0
 20
-225.0
 30
0.0
 11
-227.98988061454929
 21
-217.49813232421869
 31
0.0
  0
TEXT
  5
8A
  8
DIMNSIONS
 62
     7
 10
-232.9816666666666
 20
-253.2291666666666
 30
0.0
 40
8.1442057291666661
  1
4.0
 50
90.0
 41
0.7
 11
-241.12587239583331
 21
-253.2291666666666
 31
0.0
 73
     3
  0
TEXT
  5
8B
  8
DATA
 62
     7
 10
150.0
 20
-349.5897594444445
 30
0.0
 40
7.3297851562499989
  1
EXT-DP-144
 41
0.7
 11
150.0
 21
-342.25997428819443
 31
0.0
 73
     3
  0
TEXT
  5
8C
  8
DATA
 62
     7
 10
150.0
 20
-327.83975944444438
 30
0.0
 40
7.3297851562499989
  1
Gefen
 41
0.7
 11
150.0
 21
-320.50997428819443
 31
0.0
 73
     3
  0
TEXT
  5
8D
  8
DATA
 62
     7
 10
142.99190071016091
 20
-337.82805915816829
 30
0.0
 40
5.7009440104166647
  1
1:4 スプリッター　
 41
0.7
 11
142.99190071016091
 21
-332.12711514775168
 31
0.0
 73
     3
  0
TEXT
  5
8E
  8
DATA
 62
     7
 10
-262.5
 20
-359.35359611111102
 30
0.0
 40
5.7009440104166673
  1
※仕様及び外観は予告なく変更されることがあります。
 41
0.7
 11
-262.5
 21
-353.65265210069441
 31
0.0
 73
     3
  0
TEXT
  5
8F
  8
DATA
 62
     7
 10
-262.5
 20
-366.76192944444438
 30
0.0
 40
5.7009440104166673
  1
　また、同一製品でも若干の個体差があることがあります。ご了承ください。
 41
0.7
 11
-262.5
 21
-361.06098543402771
 31
0.0
 73
     3
  0
LINE
  5
90
  8
DATA
  6
CONTINUOUS
 62
     7
 10
-200.0
 20
-225.0
 30
0.0
 11
-200.0
 21
-199.0
 31
0.0
  0
LINE
  5
91
  8
DATA
  6
CONTINUOUS
 62
     7
 10
72.0
 20
-225.0
 30
0.0
 11
-200.0
 21
-225.0
 31
0.0
  0
LINE
  5
92
  8
DATA
  6
CONTINUOUS
 62
     7
 10
72.0
 20
-199.0
 30
0.0
 11
72.0
 21
-225.0
 31
0.0
  0
LINE
  5
93
  8
DATA
  6
CONTINUOUS
 62
     7
 10
-200.0
 20
-199.0
 30
0.0
 11
72.0
 21
-199.0
 31
0.0
  0
LINE
  5
94
  8
DATA
  6
CONTINUOUS
 62
     7
 10
-200.0
 20
-160.0
 30
0.0
 11
-200.0
 21
-47.0
 31
0.0
  0
LINE
  5
95
  8
DATA
  6
CONTINUOUS
 62
     7
 10
67.0
 20
-165.0
 30
0.0
 11
-195.0
 21
-165.0
 31
0.0
  0
LINE
  5
96
  8
DATA
  6
CONTINUOUS
 62
     7
 10
72.0
 20
-47.0
 30
0.0
 11
72.0
 21
-160.0
 31
0.0
  0
LINE
  5
97
  8
DATA
  6
CONTINUOUS
 62
     7
 10
-195.0
 20
-42.0
 30
0.0
 11
67.0
 21
-42.0
 31
0.0
  0
LINE
  5
98
  8
DATA
  6
CONTINUOUS
 62
     7
 10
100.0
 20
-225.0
 30
0.0
 11
100.0
 21
-199.0
 31
0.0
  0
LINE
  5
99
  8
DATA
  6
CONTINUOUS
 62
     7
 10
100.0
 20
-199.0
 30
0.0
 11
223.0
 21
-199.0
 31
0.0
  0
LINE
  5
9A
  8
DATA
  6
CONTINUOUS
 62
     7
 10
100.0
 20
-225.0
 30
0.0
 11
223.0
 21
-225.0
 31
0.0
  0
LINE
  5
9B
  8
DATA
  6
CONTINUOUS
 62
     7
 10
-189.5
 20
-229.0
 30
0.0
 11
-190.5
 21
-225.0
 31
0.0
  0
LINE
  5
9C
  8
DATA
  6
CONTINUOUS
 62
     7
 10
-171.5
 20
-229.0
 30
0.0
 11
-170.5
 21
-225.0
 31
0.0
  0
LINE
  5
9D
  8
DATA
  6
CONTINUOUS
 62
     7
 10
-189.5
 20
-229.0
 30
0.0
 11
-171.5
 21
-229.0
 31
0.0
  0
LINE
  5
9E
  8
DATA
  6
CONTINUOUS
 62
     7
 10
61.5
 20
-229.0
 30
0.0
 11
62.5
 21
-225.0
 31
0.0
  0
LINE
  5
9F
  8
DATA
  6
CONTINUOUS
 62
     7
 10
43.5
 20
-229.0
 30
0.0
 11
42.5
 21
-225.0
 31
0.0
  0
LINE
  5
A0
  8
DATA
  6
CONTINUOUS
 62
     7
 10
61.5
 20
-229.0
 30
0.0
 11
43.5
 21
-229.0
 31
0.0
  0
CIRCLE
  5
A1
  8
DATA
  6
CONTINUOUS
 62
     7
 10
-145.0
 20
-210.0
 30
0.0
 40
1.5
  0
TEXT
  5
A2
  8
DATA
 62
     7
 10
-151.29697711997889
 20
-223.332415832397
 30
0.0
 40
4.072102864583333
  1
Power
 41
0.7
 11
-151.29697711997889
 21
-221.29636440010529
 31
0.0
 73
     2
  0
TEXT
  5
A3
  8
DATA
 62
     7
 10
28.813144198540389
 20
-211.93264855983259
 30
0.0
 40
5.2122916666666672
  1
1:4 Splitter
 41
0.7
 11
28.813144198540389
 21
-209.32650272649931
 31
0.0
 73
     2
  0
ARC
  5
A4
  8
DATA
  6
CONTINUOUS
 62
     7
 10
-195.0
 20
-47.0
 30
0.0
 40
5.0
 50
90.0
 51
180.0
  0
ARC
  5
A5
  8
DATA
  6
CONTINUOUS
 62
     7
 10
67.0
 20
-47.0
 30
0.0
 40
5.0
 50
0.0
 51
90.0
  0
ARC
  5
A6
  8
DATA
  6
CONTINUOUS
 62
     7
 10
-195.0
 20
-160.0
 30
0.0
 40
5.0
 50
180.0
 51
270.0
  0
ARC
  5
A7
  8
DATA
  6
CONTINUOUS
 62
     7
 10
67.0
 20
-160.0
 30
0.0
 40
5.0
 50
270.0
 51
0.0
  0
TEXT
  5
A8
  8
DATA
 62
     7
 10
18.993892456236839
 20
-221.05192135602431
 30
0.0
 40
5.2122916666666672
  1
for DisplayPort
 41
0.7
 11
18.993892456236839
 21
-218.44577552269089
 31
0.0
 73
     2
  0
ARC
  5
A9
  8
DATA
  6
CONTINUOUS
 62
     7
 10
-145.0
 20
-165.0226704752391
 30
0.0
 40
1.5000000000000131
 50
179.13401866243419
 51
0.8659813375657564
  0
LINE
  5
AA
  8
DATA
  6
CONTINUOUS
 62
     7
 10
-200.0
 20
31.0
 30
0.0
 11
-200.0
 21
5.0
 31
0.0
  0
LINE
  5
AB
  8
DATA
  6
CONTINUOUS
 62
     7
 10
72.0
 20
31.0
 30
0.0
 11
-200.0
 21
31.0
 31
0.0
  0
LINE
  5
AC
  8
DATA
  6
CONTINUOUS
 62
     7
 10
72.0
 20
5.0
 30
0.0
 11
72.0
 21
31.0
 31
0.0
  0
LINE
  5
AD
  8
DATA
  6
CONTINUOUS
 62
     7
 10
-200.0
 20
5.0
 30
0.0
 11
72.0
 21
5.0
 31
0.0
  0
LINE
  5
AE
  8
DATA
  6
CONTINUOUS
 62
     7
 10
-189.5
 20
35.0
 30
0.0
 11
-190.5
 21
31.0
 31
0.0
  0
LINE
  5
AF
  8
DATA
  6
CONTINUOUS
 62
     7
 10
-171.5
 20
35.0
 30
0.0
 11
-170.5
 21
31.0
 31
0.0
  0
LINE
  5
B0
  8
DATA
  6
CONTINUOUS
 62
     7
 10
-189.5
 20
35.0
 30
0.0
 11
-171.5
 21
35.0
 31
0.0
  0
LINE
  5
B1
  8
DATA
  6
CONTINUOUS
 62
     7
 10
61.5
 20
35.0
 30
0.0
 11
62.5
 21
31.0
 31
0.0
  0
LINE
  5
B2
  8
DATA
  6
CONTINUOUS
 62
     7
 10
43.5
 20
35.0
 30
0.0
 11
42.5
 21
31.0
 31
0.0
  0
LINE
  5
B3
  8
DATA
  6
CONTINUOUS
 62
     7
 10
61.5
 20
35.0
 30
0.0
 11
43.5
 21
35.0
 31
0.0
  0
LINE
  5
B4
  8
DATA
  6
CONTINUOUS
 62
     7
 10
-188.0
 20
10.0
 30
0.0
 11
-179.0
 21
10.0
 31
0.0
  0
LINE
  5
B5
  8
DATA
  6
CONTINUOUS
 62
     7
 10
-188.0
 20
21.0
 30
0.0
 11
-188.0
 21
10.0
 31
0.0
  0
LINE
  5
B6
  8
DATA
  6
CONTINUOUS
 62
     7
 10
-179.0
 20
21.0
 30
0.0
 11
-179.0
 21
10.0
 31
0.0
  0
LINE
  5
B7
  8
DATA
  6
CONTINUOUS
 62
     7
 10
-188.0
 20
21.0
 30
0.0
 11
-179.0
 21
21.0
 31
0.0
  0
CIRCLE
  5
B8
  8
DATA
  6
CONTINUOUS
 62
     7
 10
-183.5
 20
14.5
 30
0.0
 40
3.1500000000000048
  0
CIRCLE
  5
B9
  8
DATA
  6
CONTINUOUS
 62
     7
 10
-183.5
 20
14.5
 30
0.0
 40
0.5
  0
LINE
  5
BA
  8
DATA
  6
CONTINUOUS
 62
     7
 10
-143.0
 20
15.0
 30
0.0
 11
-160.0
 21
15.0
 31
0.0
  0
LINE
  5
BB
  8
DATA
  6
CONTINUOUS
 62
     7
 10
-144.0
 20
20.5
 30
0.0
 11
-160.0
 21
20.5
 31
0.0
  0
LINE
  5
BC
  8
DATA
  6
CONTINUOUS
 62
     7
 10
-143.0
 20
15.0
 30
0.0
 11
-143.0
 21
19.5
 31
0.0
  0
LINE
  5
BD
  8
DATA
  6
CONTINUOUS
 62
     7
 10
-160.0
 20
15.0
 30
0.0
 11
-160.0
 21
20.5
 31
0.0
  0
LINE
  5
BE
  8
DATA
  6
CONTINUOUS
 62
     7
 10
-157.0
 20
17.255649225601911
 30
0.0
 11
-157.0
 21
18.755649225601911
 31
0.0
  0
LINE
  5
BF
  8
DATA
  6
CONTINUOUS
 62
     7
 10
-146.0
 20
17.255649225601911
 30
0.0
 11
-157.0
 21
17.255649225601911
 31
0.0
  0
LINE
  5
C0
  8
DATA
  6
CONTINUOUS
 62
     7
 10
-146.0
 20
18.755649225601911
 30
0.0
 11
-146.0
 21
17.255649225601911
 31
0.0
  0
LINE
  5
C1
  8
DATA
  6
CONTINUOUS
 62
     7
 10
-157.0
 20
18.755649225601911
 30
0.0
 11
-146.0
 21
18.755649225601911
 31
0.0
  0
LINE
  5
C2
  8
DATA
  6
CONTINUOUS
 62
     7
 10
-144.0
 20
20.5
 30
0.0
 11
-143.0
 21
19.5
 31
0.0
  0
LINE
  5
C3
  8
DATA
  6
CONTINUOUS
 62
     7
 10
-86.0
 20
15.0
 30
0.0
 11
-103.0
 21
15.0
 31
0.0
  0
LINE
  5
C4
  8
DATA
  6
CONTINUOUS
 62
     7
 10
-87.0
 20
20.5
 30
0.0
 11
-103.0
 21
20.5
 31
0.0
  0
LINE
  5
C5
  8
DATA
  6
CONTINUOUS
 62
     7
 10
-86.0
 20
15.0
 30
0.0
 11
-86.0
 21
19.5
 31
0.0
  0
LINE
  5
C6
  8
DATA
  6
CONTINUOUS
 62
     7
 10
-103.0
 20
15.0
 30
0.0
 11
-103.0
 21
20.5
 31
0.0
  0
LINE
  5
C7
  8
DATA
  6
CONTINUOUS
 62
     7
 10
-100.0
 20
17.255649225601911
 30
0.0
 11
-100.0
 21
18.755649225601911
 31
0.0
  0
LINE
  5
C8
  8
DATA
  6
CONTINUOUS
 62
     7
 10
-89.0
 20
17.255649225601911
 30
0.0
 11
-100.0
 21
17.255649225601911
 31
0.0
  0
LINE
  5
C9
  8
DATA
  6
CONTINUOUS
 62
     7
 10
-89.0
 20
18.755649225601911
 30
0.0
 11
-89.0
 21
17.255649225601911
 31
0.0
  0
LINE
  5
CA
  8
DATA
  6
CONTINUOUS
 62
     7
 10
-100.0
 20
18.755649225601911
 30
0.0
 11
-89.0
 21
18.755649225601911
 31
0.0
  0
LINE
  5
CB
  8
DATA
  6
CONTINUOUS
 62
     7
 10
-87.0
 20
20.5
 30
0.0
 11
-86.0
 21
19.5
 31
0.0
  0
LINE
  5
CC
  8
DATA
  6
CONTINUOUS
 62
     7
 10
-51.0
 20
15.0
 30
0.0
 11
-68.0
 21
15.0
 31
0.0
  0
LINE
  5
CD
  8
DATA
  6
CONTINUOUS
 62
     7
 10
-52.0
 20
20.5
 30
0.0
 11
-68.0
 21
20.5
 31
0.0
  0
LINE
  5
CE
  8
DATA
  6
CONTINUOUS
 62
     7
 10
-51.0
 20
15.0
 30
0.0
 11
-51.0
 21
19.5
 31
0.0
  0
LINE
  5
CF
  8
DATA
  6
CONTINUOUS
 62
     7
 10
-68.0
 20
15.0
 30
0.0
 11
-68.0
 21
20.5
 31
0.0
  0
LINE
  5
D0
  8
DATA
  6
CONTINUOUS
 62
     7
 10
-65.0
 20
17.255649225601911
 30
0.0
 11
-65.0
 21
18.755649225601911
 31
0.0
  0
LINE
  5
D1
  8
DATA
  6
CONTINUOUS
 62
     7
 10
-54.0
 20
17.255649225601911
 30
0.0
 11
-65.0
 21
17.255649225601911
 31
0.0
  0
LINE
  5
D2
  8
DATA
  6
CONTINUOUS
 62
     7
 10
-54.0
 20
18.755649225601911
 30
0.0
 11
-54.0
 21
17.255649225601911
 31
0.0
  0
LINE
  5
D3
  8
DATA
  6
CONTINUOUS
 62
     7
 10
-65.0
 20
18.755649225601911
 30
0.0
 11
-54.0
 21
18.755649225601911
 31
0.0
  0
LINE
  5
D4
  8
DATA
  6
CONTINUOUS
 62
     7
 10
-52.0
 20
20.5
 30
0.0
 11
-51.0
 21
19.5
 31
0.0
  0
LINE
  5
D5
  8
DATA
  6
CONTINUOUS
 62
     7
 10
-16.0
 20
15.0
 30
0.0
 11
-33.0
 21
15.0
 31
0.0
  0
LINE
  5
D6
  8
DATA
  6
CONTINUOUS
 62
     7
 10
-17.0
 20
20.5
 30
0.0
 11
-33.0
 21
20.5
 31
0.0
  0
LINE
  5
D7
  8
DATA
  6
CONTINUOUS
 62
     7
 10
-16.0
 20
15.0
 30
0.0
 11
-16.0
 21
19.5
 31
0.0
  0
LINE
  5
D8
  8
DATA
  6
CONTINUOUS
 62
     7
 10
-33.0
 20
15.0
 30
0.0
 11
-33.0
 21
20.5
 31
0.0
  0
LINE
  5
D9
  8
DATA
  6
CONTINUOUS
 62
     7
 10
-30.0
 20
17.255649225601911
 30
0.0
 11
-30.0
 21
18.755649225601911
 31
0.0
  0
LINE
  5
DA
  8
DATA
  6
CONTINUOUS
 62
     7
 10
-19.0
 20
17.255649225601911
 30
0.0
 11
-30.0
 21
17.255649225601911
 31
0.0
  0
LINE
  5
DB
  8
DATA
  6
CONTINUOUS
 62
     7
 10
-19.0
 20
18.755649225601911
 30
0.0
 11
-19.0
 21
17.255649225601911
 31
0.0
  0
LINE
  5
DC
  8
DATA
  6
CONTINUOUS
 62
     7
 10
-30.0
 20
18.755649225601911
 30
0.0
 11
-19.0
 21
18.755649225601911
 31
0.0
  0
LINE
  5
DD
  8
DATA
  6
CONTINUOUS
 62
     7
 10
-17.0
 20
20.5
 30
0.0
 11
-16.0
 21
19.5
 31
0.0
  0
LINE
  5
DE
  8
DATA
  6
CONTINUOUS
 62
     7
 10
19.0
 20
15.0
 30
0.0
 11
2.0
 21
15.0
 31
0.0
  0
LINE
  5
DF
  8
DATA
  6
CONTINUOUS
 62
     7
 10
18.0
 20
20.5
 30
0.0
 11
2.0
 21
20.5
 31
0.0
  0
LINE
  5
E0
  8
DATA
  6
CONTINUOUS
 62
     7
 10
19.0
 20
15.0
 30
0.0
 11
19.0
 21
19.5
 31
0.0
  0
LINE
  5
E1
  8
DATA
  6
CONTINUOUS
 62
     7
 10
2.0
 20
15.0
 30
0.0
 11
2.0
 21
20.5
 31
0.0
  0
LINE
  5
E2
  8
DATA
  6
CONTINUOUS
 62
     7
 10
5.0
 20
17.255649225601911
 30
0.0
 11
5.0
 21
18.755649225601911
 31
0.0
  0
LINE
  5
E3
  8
DATA
  6
CONTINUOUS
 62
     7
 10
16.0
 20
17.255649225601911
 30
0.0
 11
5.0
 21
17.255649225601911
 31
0.0
  0
LINE
  5
E4
  8
DATA
  6
CONTINUOUS
 62
     7
 10
16.0
 20
18.755649225601911
 30
0.0
 11
16.0
 21
17.255649225601911
 31
0.0
  0
LINE
  5
E5
  8
DATA
  6
CONTINUOUS
 62
     7
 10
5.0
 20
18.755649225601911
 30
0.0
 11
16.0
 21
18.755649225601911
 31
0.0
  0
LINE
  5
E6
  8
DATA
  6
CONTINUOUS
 62
     7
 10
18.0
 20
20.5
 30
0.0
 11
19.0
 21
19.5
 31
0.0
  0
CIRCLE
  5
E7
  8
DATA
  6
CONTINUOUS
 62
     7
 10
-164.0
 20
12.0
 30
0.0
 40
1.5
  0
CIRCLE
  5
E8
  8
DATA
  6
CONTINUOUS
 62
     7
 10
-106.5
 20
12.0
 30
0.0
 40
1.5
  0
CIRCLE
  5
E9
  8
DATA
  6
CONTINUOUS
 62
     7
 10
-71.5
 20
12.0
 30
0.0
 40
1.5
  0
CIRCLE
  5
EA
  8
DATA
  6
CONTINUOUS
 62
     7
 10
-36.5
 20
12.0
 30
0.0
 40
1.5
  0
CIRCLE
  5
EB
  8
DATA
  6
CONTINUOUS
 62
     7
 10
-1.5
 20
12.0
 30
0.0
 40
1.5
  0
LINE
  5
EC
  8
DATA
  6
CONTINUOUS
 62
     7
 10
55.0
 20
31.0
 30
0.0
 11
25.0
 21
31.0
 31
0.0
  0
CIRCLE
  5
ED
  8
DATA
  6
CONTINUOUS
 62
     7
 10
37.0
 20
18.5
 30
0.0
 40
2.1499999999999981
  0
LINE
  5
EE
  8
DATA
  6
CONTINUOUS
 62
     7
 10
50.0
 20
21.0
 30
0.0
 11
54.0
 21
21.0
 31
0.0
  0
LINE
  5
EF
  8
DATA
  6
CONTINUOUS
 62
     7
 10
50.0
 20
19.5
 30
0.0
 11
54.0
 21
19.5
 31
0.0
  0
LINE
  5
F0
  8
DATA
  6
CONTINUOUS
 62
     7
 10
54.0
 20
19.5
 30
0.0
 11
54.0
 21
21.0
 31
0.0
  0
LINE
  5
F1
  8
DATA
  6
CONTINUOUS
 62
     7
 10
50.0
 20
19.5
 30
0.0
 11
50.0
 21
21.0
 31
0.0
  0
LINE
  5
F2
  8
DATA
  6
CONTINUOUS
 62
     7
 10
52.0
 20
19.5
 30
0.0
 11
52.0
 21
21.0
 31
0.0
  0
TEXT
  5
F3
  8
DATA
 62
     7
 10
-178.09375
 20
29.47043220044468
 30
0.0
 40
3.2576822916666659
  1
5V DC
 50
180.0
 41
0.7
 11
-178.09375
 21
27.841591054611349
 31
0.0
 73
     2
  0
TEXT
  5
F4
  8
DATA
 62
     7
 10
-149.17481899643411
 20
29.47043220044468
 30
0.0
 40
3.2576822916666659
  1
In
 50
180.0
 41
0.7
 11
-149.17481899643411
 21
27.841591054611349
 31
0.0
 73
     2
  0
TEXT
  5
F5
  8
DATA
 62
     7
 10
-89.302247828819389
 20
29.47043220044468
 30
0.0
 40
3.2576822916666659
  1
Out 4
 50
180.0
 41
0.7
 11
-89.302247828819389
 21
27.841591054611349
 31
0.0
 73
     2
  0
TEXT
  5
F6
  8
DATA
 62
     7
 10
-54.302247828819382
 20
29.47043220044468
 30
0.0
 40
3.2576822916666659
  1
Out 3
 50
180.0
 41
0.7
 11
-54.302247828819382
 21
27.841591054611349
 31
0.0
 73
     2
  0
TEXT
  5
F7
  8
DATA
 62
     7
 10
-19.302247828819379
 20
29.47043220044468
 30
0.0
 40
3.2576822916666659
  1
Out 2
 50
180.0
 41
0.7
 11
-19.302247828819379
 21
27.841591054611349
 31
0.0
 73
     2
  0
TEXT
  5
F8
  8
DATA
 62
     7
 10
15.697752171180611
 20
29.47043220044468
 30
0.0
 40
3.2576822916666659
  1
Out 1
 50
180.0
 41
0.7
 11
15.697752171180611
 21
27.841591054611349
 31
0.0
 73
     2
  0
TEXT
  5
F9
  8
DATA
 62
     7
 10
42.697752171180611
 20
29.47043220044468
 30
0.0
 40
3.2576822916666659
  1
Reset
 50
180.0
 41
0.7
 11
42.697752171180611
 21
27.841591054611349
 31
0.0
 73
     2
  0
TEXT
  5
FA
  8
DATA
 62
     7
 10
55.660064261261191
 20
29.47043220044468
 30
0.0
 40
3.2576822916666659
  1
EDID
 50
180.0
 41
0.7
 11
55.660064261261191
 21
27.841591054611349
 31
0.0
 73
     2
  0
TEXT
  5
FB
  8
DATA
 62
     7
 10
56.014434436305322
 20
24.15982196891817
 30
0.0
 40
1.6887825000000001
  1
Int
 50
180.0
 41
0.7
 11
56.014434436305322
 21
23.315430718918162
 31
0.0
 73
     2
  0
TEXT
  5
FC
  8
DATA
 62
     7
 10
50.716572318804133
 20
24.15982196891817
 30
0.0
 40
1.6887825000000001
  1
Ext
 50
180.0
 41
0.7
 11
50.716572318804133
 21
23.315430718918162
 31
0.0
 73
     2
  0
LINE
  5
FD
  8
DATA
  6
CONTINUOUS
 62
     7
 10
223.0
 20
-199.0
 30
0.0
 11
223.0
 21
-225.0
 31
0.0
  0
LINE
  5
FE
  8
DATA
  6
CONTINUOUS
 62
     7
 10
134.0
 20
-229.0
 30
0.0
 11
135.0
 21
-225.0
 31
0.0
  0
LINE
  5
FF
  8
DATA
  6
CONTINUOUS
 62
     7
 10
116.0
 20
-229.0
 30
0.0
 11
115.0
 21
-225.0
 31
0.0
  0
LINE
  5
100
  8
DATA
  6
CONTINUOUS
 62
     7
 10
134.0
 20
-229.0
 30
0.0
 11
116.0
 21
-229.0
 31
0.0
  0
LINE
  5
101
  8
DATA
  6
CONTINUOUS
 62
     7
 10
214.0
 20
-229.0
 30
0.0
 11
215.0
 21
-225.0
 31
0.0
  0
LINE
  5
102
  8
DATA
  6
CONTINUOUS
 62
     7
 10
196.0
 20
-229.0
 30
0.0
 11
195.0
 21
-225.0
 31
0.0
  0
LINE
  5
103
  8
DATA
  6
CONTINUOUS
 62
     7
 10
214.0
 20
-229.0
 30
0.0
 11
196.0
 21
-229.0
 31
0.0
  0
LINE
  5
104
  8
DATA
  6
CONTINUOUS
 62
     7
 10
214.0
 20
-199.0
 30
0.0
 11
214.0
 21
-225.0
 31
0.0
  0
LINE
  5
105
  8
DATA
  6
CONTINUOUS
 62
     7
 10
109.0
 20
-225.0
 30
0.0
 11
109.0
 21
-204.0
 31
0.0
  0
LINE
  5
106
  8
DATA
  6
CONTINUOUS
 62
     7
 10
107.0
 20
-225.0
 30
0.0
 11
107.0
 21
-224.0
 31
0.0
  0
LINE
  5
107
  8
DATA
  6
CONTINUOUS
 62
     7
 10
107.0
 20
-204.0
 30
0.0
 11
107.0
 21
-199.0
 31
0.0
  0
LINE
  5
108
  8
DATA
  6
CONTINUOUS
 62
     7
 10
109.0
 20
-204.0
 30
0.0
 11
107.0
 21
-204.0
 31
0.0
  0
LINE
  5
109
  8
DATA
  6
CONTINUOUS
 62
     7
 10
109.0
 20
-224.0
 30
0.0
 11
107.0
 21
-224.0
 31
0.0
  0
CIRCLE
  5
10A
  8
DATA
  6
CONTINUOUS
 62
     7
 10
112.00157985603001
 20
-209.0
 30
0.0
 40
2.5
  0
LINE
  5
10B
  8
DATA
  6
CONTINUOUS
 62
     7
 10
110.7552711084795
 20
-209.0
 30
0.0
 11
113.24788860358051
 21
-209.0
 31
0.0
  0
LINE
  5
10C
  8
DATA
  6
CONTINUOUS
 62
     7
 10
112.00157985603001
 20
-210.2463087475505
 30
0.0
 11
112.00157985603001
 21
-207.75369125244961
 31
0.0
  0
CIRCLE
  5
10D
  8
DATA
  6
CONTINUOUS
 62
     7
 10
112.00157985603001
 20
-220.0
 30
0.0
 40
2.5
  0
LINE
  5
10E
  8
DATA
  6
CONTINUOUS
 62
     7
 10
110.7552711084795
 20
-220.0
 30
0.0
 11
113.24788860358051
 21
-220.0
 31
0.0
  0
LINE
  5
10F
  8
DATA
  6
CONTINUOUS
 62
     7
 10
112.00157985603001
 20
-221.2463087475505
 30
0.0
 11
112.00157985603001
 21
-218.75369125244961
 31
0.0
  0
ARC
  5
110
  8
DATA
  6
CONTINUOUS
 62
     7
 10
99.94827630619541
 20
-210.0
 30
0.0
 40
1.5000000000000011
 50
88.023908688758596
 51
271.97609131124148
  0
ARC
  5
111
  8
DATA
  6
CONTINUOUS
 62
     7
 10
-164.0
 20
-41.499999999558881
 30
0.0
 40
1.5000000000000191
 50
340.52877934763802
 51
199.47122065236201
  0
ARC
  5
112
  8
DATA
  6
CONTINUOUS
 62
     7
 10
-106.5
 20
-41.499999999558881
 30
0.0
 40
1.5000000000000191
 50
340.52877934763802
 51
199.47122065236201
  0
ARC
  5
113
  8
DATA
  6
CONTINUOUS
 62
     7
 10
-71.5
 20
-41.499999999558881
 30
0.0
 40
1.5000000000000191
 50
340.52877934763802
 51
199.47122065236201
  0
ARC
  5
114
  8
DATA
  6
CONTINUOUS
 62
     7
 10
-36.5
 20
-41.499999999558881
 30
0.0
 40
1.5000000000000191
 50
340.52877934763802
 51
199.47122065236201
  0
ARC
  5
115
  8
DATA
  6
CONTINUOUS
 62
     7
 10
-1.5
 20
-41.499999999558881
 30
0.0
 40
1.5000000000000191
 50
340.52877934763802
 51
199.47122065236201
  0
LINE
  5
116
  8
DATA
  6
CONTINUOUS
 62
     7
 10
34.850000000000001
 20
-40.0
 30
0.0
 11
34.850000000000001
 21
-42.0
 31
0.0
  0
LINE
  5
117
  8
DATA
  6
CONTINUOUS
 62
     7
 10
39.149999999999999
 20
-40.0
 30
0.0
 11
39.149999999999999
 21
-42.0
 31
0.0
  0
LINE
  5
118
  8
DATA
  6
CONTINUOUS
 62
     7
 10
34.850000000000001
 20
-40.0
 30
0.0
 11
39.149999999999999
 21
-40.0
 31
0.0
  0
LINE
  5
119
  8
DATA
  6
CONTINUOUS
 62
     7
 10
52.0
 20
-41.70000000000001
 30
0.0
 11
52.0
 21
-42.0
 31
0.0
  0
LINE
  5
11A
  8
DATA
  6
CONTINUOUS
 62
     7
 10
54.0
 20
-41.700000000000003
 30
0.0
 11
54.0
 21
-42.0
 31
0.0
  0
LINE
  5
11B
  8
DATA
  6
CONTINUOUS
 62
     7
 10
54.000000000000007
 20
-41.700000000000003
 30
0.0
 11
52.0
 21
-41.700000000000003
 31
0.0
  0
LINE
  5
11C
  8
DATA
  6
CONTINUOUS
 62
     7
 10
225.0
 20
-214.65000000000001
 30
0.0
 11
223.30000000000001
 21
-214.65000000000001
 31
0.0
  0
LINE
  5
11D
  8
DATA
  6
CONTINUOUS
 62
     7
 10
225.0
 20
-210.34999999999999
 30
0.0
 11
225.0
 21
-214.65000000000001
 31
0.0
  0
LINE
  5
11E
  8
DATA
  6
CONTINUOUS
 62
     7
 10
223.0
 20
-210.34999999999999
 30
0.0
 11
225.0
 21
-210.34999999999999
 31
0.0
  0
ARC
  5
11F
  8
DATA
  6
CONTINUOUS
 62
     7
 10
223.498862425878
 20
-206.0
 30
0.0
 40
1.500000000000014
 50
250.5287793476385
 51
109.47122065236159
  0
LINE
  5
120
  8
DATA
  6
CONTINUOUS
 62
     7
 10
223.0
 20
-215.0
 30
0.0
 11
223.30000000000001
 21
-215.0
 31
0.0
  0
LINE
  5
121
  8
DATA
  6
CONTINUOUS
 62
     7
 10
223.0
 20
-213.5
 30
0.0
 11
223.30000000000001
 21
-213.5
 31
0.0
  0
LINE
  5
122
  8
DATA
  6
CONTINUOUS
 62
     7
 10
223.30000000000001
 20
-215.0
 30
0.0
 11
223.30000000000001
 21
-213.5
 31
0.0
  0
ENDSEC
  0
EOF
