  0
SECTION
  2
HEADER
  9
$ACADVER
  1
AC1009
  9
$INSBASE
 10
0.0
 20
0.0
 30
0.0
  9
$EXTMIN
 10
-89.999999999990976
 20
-137.5519002719773
 30
0.0
  9
$EXTMAX
 10
89.999999999990976
 20
129.9999999999867
 30
0.0
  9
$LIMMIN
 10
0.0
 20
0.0
  9
$LIMMAX
 10
0.0
 20
0.0
  9
$ORTHOMODE
 70
     0
  9
$REGENMODE
 70
     1
  9
$FILLMODE
 70
     1
  9
$QTEXTMODE
 70
     0
  9
$MIRRTEXT
 70
     1
  9
$DRAGMODE
 70
     2
  9
$LTSCALE
 40
5.0800000000000001
  9
$OSMODE
 70
   231
  9
$ATTMODE
 70
     1
  9
$TEXTSIZE
 40
0.0
  9
$TRACEWID
 40
1.0
  9
$TEXTSTYLE
  7
STANDARD
  9
$CLAYER
  8
DATA
  9
$CELTYPE
  6
BYLAYER
  9
$CECOLOR
 62
   256
  9
$DIMSCALE
 40
1.0
  9
$DIMASZ
 40
0.18
  9
$DIMEXO
 40
0.0625
  9
$DIMDLI
 40
0.38
  9
$DIMRND
 40
0.0
  9
$DIMDLE
 40
0.0
  9
$DIMEXE
 40
0.18
  9
$DIMTP
 40
0.0
  9
$DIMTM
 40
0.0
  9
$DIMTXT
 40
0.18
  9
$DIMCEN
 40
0.09
  9
$DIMTSZ
 40
0.0
  9
$DIMTOL
 70
     0
  9
$DIMLIM
 70
     0
  9
$DIMTIH
 70
     1
  9
$DIMTOH
 70
     1
  9
$DIMSE1
 70
     0
  9
$DIMSE2
 70
     0
  9
$DIMTAD
 70
     0
  9
$DIMZIN
 70
     0
  9
$DIMBLK
  1

  9
$DIMASO
 70
     1
  9
$DIMSHO
 70
     1
  9
$DIMPOST
  1

  9
$DIMAPOST
  1

  9
$DIMALT
 70
     0
  9
$DIMALTD
 70
     2
  9
$DIMALTF
 40
25.399999999999999
  9
$DIMLFAC
 40
1.0
  9
$DIMTOFL
 70
     0
  9
$DIMTVP
 40
0.0
  9
$DIMTIX
 70
     0
  9
$DIMSOXD
 70
     0
  9
$DIMSAH
 70
     0
  9
$DIMBLK1
  1

  9
$DIMBLK2
  1

  9
$DIMSTYLE
  2
STANDARD
  9
$DIMCLRD
 70
     0
  9
$DIMCLRE
 70
     0
  9
$DIMCLRT
 70
     0
  9
$DIMTFAC
 40
1.0
  9
$DIMGAP
 40
0.09
  9
$LUNITS
 70
     2
  9
$LUPREC
 70
     4
  9
$SKETCHINC
 40
0.1
  9
$FILLETRAD
 40
0.0
  9
$AUNITS
 70
     0
  9
$AUPREC
 70
     0
  9
$MENU
  1
acad
  9
$ELEVATION
 40
0.0
  9
$PELEVATION
 40
0.0
  9
$THICKNESS
 40
0.0
  9
$LIMCHECK
 70
     0
  9
$BLIPMODE
 70
     0
  9
$CHAMFERA
 40
0.0
  9
$CHAMFERB
 40
0.0
  9
$SKPOLY
 70
     0
  9
$TDCREATE
 40
2456457.562557871
  9
$TDUPDATE
 40
2456457.5715575931
  9
$TDINDWG
 40
0.0004867477
  9
$TDUSRTIMER
 40
0.0004865509
  9
$USRTIMER
 70
     1
  9
$ANGBASE
 50
0.0
  9
$ANGDIR
 70
     0
  9
$PDMODE
 70
     1
  9
$PDSIZE
 40
-2.0
  9
$PLINEWID
 40
0.0
  9
$COORDS
 70
     2
  9
$SPLFRAME
 70
     0
  9
$SPLINETYPE
 70
     6
  9
$SPLINESEGS
 70
     8
  9
$ATTDIA
 70
     0
  9
$ATTREQ
 70
     1
  9
$HANDLING
 70
     1
  9
$HANDSEED
  5
28D
  9
$SURFTAB1
 70
     6
  9
$SURFTAB2
 70
     6
  9
$SURFTYPE
 70
     6
  9
$SURFU
 70
     6
  9
$SURFV
 70
     6
  9
$UCSNAME
  2

  9
$UCSORG
 10
0.0
 20
0.0
 30
0.0
  9
$UCSXDIR
 10
1.0
 20
0.0
 30
0.0
  9
$UCSYDIR
 10
0.0
 20
1.0
 30
0.0
  9
$PUCSNAME
  2

  9
$PUCSORG
 10
0.0
 20
0.0
 30
0.0
  9
$PUCSXDIR
 10
1.0
 20
0.0
 30
0.0
  9
$PUCSYDIR
 10
0.0
 20
1.0
 30
0.0
  9
$USERI1
 70
     0
  9
$USERI2
 70
     0
  9
$USERI3
 70
     0
  9
$USERI4
 70
     0
  9
$USERI5
 70
     0
  9
$USERR1
 40
0.0
  9
$USERR2
 40
0.0
  9
$USERR3
 40
0.0
  9
$USERR4
 40
0.0
  9
$USERR5
 40
0.0
  9
$WORLDVIEW
 70
     1
  9
$SHADEDGE
 70
     3
  9
$SHADEDIF
 70
    70
  9
$TILEMODE
 70
     1
  9
$MAXACTVP
 70
    64
  9
$PLIMCHECK
 70
     0
  9
$PEXTMIN
 10
1.0000000000000000E+020
 20
1.0000000000000000E+020
 30
1.0000000000000000E+020
  9
$PEXTMAX
 10
-1.0000000000000000E+020
 20
-1.0000000000000000E+020
 30
-1.0000000000000000E+020
  9
$PLIMMIN
 10
0.0
 20
0.0
  9
$PLIMMAX
 10
12.0
 20
9.0
  9
$UNITMODE
 70
     0
  9
$VISRETAIN
 70
     0
  9
$PLINEGEN
 70
     1
  9
$PSLTSCALE
 70
     0
  0
ENDSEC
  0
SECTION
  2
TABLES
  0
TABLE
  2
VPORT
 70
     1
  0
VPORT
  2
*ACTIVE
 70
     0
 10
0.0
 20
0.0
 11
1.0
 21
1.0
 12
0.0000004190950449
 22
17.07403599785059
 13
0.0
 23
0.0
 14
1.0
 24
1.0
 15
0.0
 25
0.0
 16
0.0
 26
0.0
 36
1.0
 17
0.0
 27
0.0
 37
0.0
 40
269.67614618850092
 41
2.1585051546391751
 42
50.0
 43
0.0
 44
0.0
 50
0.0
 51
0.0
 71
     0
 72
  2000
 73
     1
 74
     1
 75
     0
 76
     0
 77
     0
 78
     0
  0
ENDTAB
  0
TABLE
  2
LTYPE
 70
     1
  0
LTYPE
  2
CONTINUOUS
 70
     0
  3
Solid line
 72
    65
 73
     0
 40
0.0
  0
ENDTAB
  0
TABLE
  2
LAYER
 70
     5
  0
LAYER
  2
0
 70
     0
 62
     7
  6
CONTINUOUS
  0
LAYER
  2
DATA
 70
     0
 62
     7
  6
CONTINUOUS
  0
LAYER
  2
HIBINO-BASE
 70
     0
 62
     7
  6
CONTINUOUS
  0
LAYER
  2
SPEC
 70
     0
 62
     7
  6
CONTINUOUS
  0
LAYER
  2
DIMNSIONS
 70
     0
 62
     7
  6
CONTINUOUS
  0
ENDTAB
  0
TABLE
  2
STYLE
 70
     2
  0
STYLE
  2
STANDARD
 70
     0
 40
0.0
 41
1.0
 50
0.0
 71
     0
 42
0.0
  3
txt
  4
BIGFONT.SHX
  0
ENDTAB
  0
TABLE
  2
VIEW
 70
     0
  0
ENDTAB
  0
TABLE
  2
UCS
 70
     0
  0
ENDTAB
  0
TABLE
  2
APPID
 70
     4
  0
APPID
  2
ACAD
 70
     0
  0
APPID
  2
ACADANNOTATIVE
 70
     0
  0
APPID
  2
ACAD_NAV_VCDISPLAY
 70
     0
  0
APPID
  2
ACAD_MLEADERVER
 70
     0
  0
ENDTAB
  0
TABLE
  2
DIMSTYLE
 70
     2
  0
DIMSTYLE
  2
STANDARD
 70
     0
  3

  4

  5

  6

  7

 40
1.0
 41
0.18
 42
0.0625
 43
0.38
 44
0.18
 45
0.0
 46
0.0
 47
0.0
 48
0.0
140
0.18
141
0.09
142
0.0
143
25.399999999999999
144
1.0
145
0.0
146
1.0
147
0.09
 71
     0
 72
     0
 73
     1
 74
     1
 75
     0
 76
     0
 77
     0
 78
     0
170
     0
171
     2
172
     0
173
     0
174
     0
175
     0
176
     0
177
     0
178
     0
  0
ENDTAB
  0
ENDSEC
  0
SECTION
  2
BLOCKS
  0
BLOCK
  8
0
  2
$MODEL_SPACE
 70
     0
 10
0.0
 20
0.0
 30
0.0
  3
$MODEL_SPACE
  1

  0
ENDBLK
  5
224
  8
0
  0
BLOCK
 67
     1
  8
0
  2
$PAPER_SPACE
 70
     0
 10
0.0
 20
0.0
 30
0.0
  3
$PAPER_SPACE
  1

  0
ENDBLK
  5
220
 67
     1
  8
0
  0
ENDSEC
  0
SECTION
  2
ENTITIES
  0
LINE
  5
2C
  8
HIBINO-BASE
  6
CONTINUOUS
 62
     7
 10
-89.999999999990976
 20
129.9999999999867
 30
0.0
 11
89.999999999990976
 21
129.9999999999867
 31
0.0
  0
LINE
  5
2D
  8
HIBINO-BASE
  6
CONTINUOUS
 62
     7
 10
89.999999999990976
 20
-129.9999999999873
 30
0.0
 11
-89.999999999990976
 21
-129.9999999999873
 31
0.0
  0
LINE
  5
2E
  8
HIBINO-BASE
  6
CONTINUOUS
 62
     7
 10
89.999999999990976
 20
129.9999999999867
 30
0.0
 11
89.999999999990976
 21
-129.9999999999873
 31
0.0
  0
LINE
  5
2F
  8
HIBINO-BASE
  6
CONTINUOUS
 62
     7
 10
0.0
 20
-107.4999999999896
 30
0.0
 11
89.999999999990976
 21
-107.4999999999896
 31
0.0
  0
LINE
  5
30
  8
HIBINO-BASE
  6
CONTINUOUS
 62
     7
 10
0.0
 20
-129.9999999999873
 30
0.0
 11
0.0
 21
-107.4999999999896
 31
0.0
  0
TEXT
  5
31
  8
HIBINO-BASE
 62
     7
 10
0.8999999999999097
 20
-110.0086933333226
 30
0.0
 40
1.6288411458331691
  1
NOTE
 41
0.7
 11
0.8999999999999099
 21
-108.3798521874894
 31
0.0
 73
     3
  0
LINE
  5
32
  8
HIBINO-BASE
  6
CONTINUOUS
 62
     7
 10
34.999999999996497
 20
-129.9999999999873
 30
0.0
 11
34.999999999996497
 21
-107.4999999999896
 31
0.0
  0
TEXT
  5
33
  8
HIBINO-BASE
 62
     7
 10
35.89999999999641
 20
-110.0086933333226
 30
0.0
 40
1.6288411458331691
  1
TITLE
 41
0.7
 11
35.89999999999641
 21
-108.3798521874894
 31
0.0
 73
     3
  0
LINE
  5
34
  8
HIBINO-BASE
  6
CONTINUOUS
 62
     7
 10
0.0
 20
-119.9999999999883
 30
0.0
 11
89.999999999990976
 21
-119.9999999999883
 31
0.0
  0
TEXT
  5
35
  8
HIBINO-BASE
 62
     7
 10
48.399999999995138
 20
-122.4523733333213
 30
0.0
 40
1.6288411458331691
  1
DRAWN
 41
0.7
 11
48.399999999995138
 21
-120.8235321874882
 31
0.0
 73
     3
  0
TEXT
  5
36
  8
HIBINO-BASE
 62
     7
 10
23.39999999999765
 20
-122.4523733333213
 30
0.0
 40
1.6288411458331691
  1
DATE
 41
0.7
 11
23.39999999999765
 21
-120.8235321874882
 31
0.0
 73
     3
  0
TEXT
  5
37
  8
HIBINO-BASE
 62
     7
 10
13.399999999998659
 20
-122.4523733333213
 30
0.0
 40
1.6288411458331691
  1
SCALE
 41
0.7
 11
13.399999999998659
 21
-120.8235321874882
 31
0.0
 73
     3
  0
TEXT
  5
38
  8
HIBINO-BASE
 62
     7
 10
35.89999999999641
 20
-122.4523733333213
 30
0.0
 40
1.6288411458331691
  1
DESIGN
 41
0.7
 11
35.89999999999641
 21
-120.8235321874882
 31
0.0
 73
     3
  0
TEXT
  5
39
  8
HIBINO-BASE
 62
     7
 10
73.399999999992673
 20
-122.4523733333213
 30
0.0
 40
1.6288411458331691
  1
DRAWING NO.
 41
0.7
 11
73.399999999992673
 21
-120.8235321874882
 31
0.0
 73
     3
  0
TEXT
  5
3A
  8
HIBINO-BASE
 62
     7
 10
60.899999999993909
 20
-122.4523733333213
 30
0.0
 40
1.6288411458331691
  1
CHECK
 41
0.7
 11
60.899999999993909
 21
-120.8235321874882
 31
0.0
 73
     3
  0
LINE
  5
3B
  8
HIBINO-BASE
  6
CONTINUOUS
 62
     7
 10
14.374999999998559
 20
-128.74999999998741
 30
0.0
 11
18.124999999998181
 21
-124.99999999998781
 31
0.0
  0
TEXT
  5
3C
  8
HIBINO-BASE
 62
     7
 10
13.74999999999862
 20
-126.10894333332099
 30
0.0
 40
1.6288411458331691
  1
1
 41
0.7
 11
13.74999999999862
 21
-124.4801021874879
 31
0.0
 73
     3
  0
LINE
  5
3D
  8
HIBINO-BASE
  6
CONTINUOUS
 62
     7
 10
12.499999999998741
 20
-129.9999999999873
 30
0.0
 11
12.499999999998741
 21
-119.9999999999883
 31
0.0
  0
LINE
  5
3E
  8
HIBINO-BASE
  6
CONTINUOUS
 62
     7
 10
22.49999999999774
 20
-129.9999999999873
 30
0.0
 11
22.49999999999774
 21
-119.9999999999883
 31
0.0
  0
LINE
  5
3F
  8
HIBINO-BASE
  6
CONTINUOUS
 62
     7
 10
47.499999999995232
 20
-119.9999999999883
 30
0.0
 11
47.499999999995232
 21
-129.9999999999873
 31
0.0
  0
LINE
  5
40
  8
HIBINO-BASE
  6
CONTINUOUS
 62
     7
 10
72.499999999992752
 20
-119.9999999999883
 30
0.0
 11
72.499999999992752
 21
-129.9999999999873
 31
0.0
  0
LINE
  5
41
  8
HIBINO-BASE
  6
CONTINUOUS
 62
     7
 10
59.999999999993989
 20
-129.9999999999873
 30
0.0
 11
59.999999999993989
 21
-119.9999999999883
 31
0.0
  0
TEXT
  5
42
  8
HIBINO-BASE
 62
     7
 10
23.356539999997668
 20
-127.1363533333209
 30
0.0
 40
1.6288411458331691
  1
'13.6.
 41
0.7
 11
23.356539999997668
 21
-125.50751218748771
 31
0.0
 73
     3
  0
TEXT
  5
43
  8
HIBINO-BASE
 62
     7
 10
17.499999999998249
 20
-127.98394333332079
 30
0.0
 40
1.6288411458331691
  1
1
 41
0.7
 11
17.499999999998249
 21
-126.3551021874877
 31
0.0
 73
     3
  0
TEXT
  5
44
  8
HIBINO-BASE
 62
     7
 10
49.00581001102973
 20
-127.1363533333209
 30
0.0
 40
1.6288411458331691
  1
Ootake
 41
0.7
 11
49.00581001102973
 21
-125.50751218748771
 31
0.0
 73
     3
  0
TEXT
  5
45
  8
HIBINO-BASE
 62
     7
 10
3.8833333333329589
 20
-128.02399999998741
 30
0.0
 40
3.257682291666339
  1
A4
 41
0.7
 11
3.8833333333329589
 21
-124.7663177083211
 31
0.0
 73
     3
  0
TEXT
  5
46
  8
HIBINO-BASE
 62
     7
 10
0.9583333333332365
 20
-122.61945499998799
 30
0.0
 40
1.6288411458331691
  1
PAPER SIZE
 41
0.7
 11
0.9583333333332365
 21
-120.9906138541549
 31
0.0
 73
     3
  0
TEXT
  5
47
  8
HIBINO-BASE
 62
     7
 10
-82.815999999991703
 20
-136.37551499998671
 30
0.0
 40
3.5291558159718681
  1
Hibino-Intersound Corporation
 41
0.7
 11
-82.815999999991703
 21
-132.8463591840148
 31
0.0
 73
     3
  0
TEXT
  5
48
  8
HIBINO-BASE
 62
     7
 10
14.024334167241721
 20
-136.37551499998671
 30
0.0
 40
3.5291558159718681
  1
ヒビノインターサウンド株式会社
 41
0.7
 11
14.024334167241721
 21
-132.8463591840148
 31
0.0
 73
     3
  0
LINE
  5
49
  8
HIBINO-BASE
  6
CONTINUOUS
 62
     7
 10
-89.999999999990976
 20
-129.9999999999873
 30
0.0
 11
-89.999999999990976
 21
129.9999999999867
 31
0.0
  0
LINE
  5
4A
  8
SPEC
  6
CONTINUOUS
 62
     7
 10
-82.499999999991729
 20
119.99999999998759
 30
0.0
 11
64.999999999993506
 21
119.99999999998759
 31
0.0
  0
LINE
  5
4B
  8
SPEC
  6
CONTINUOUS
 62
     7
 10
-82.499999999991729
 20
116.24999999998801
 30
0.0
 11
64.999999999993506
 21
116.24999999998801
 31
0.0
  0
LINE
  5
4C
  8
SPEC
  6
CONTINUOUS
 62
     7
 10
-82.499999999991729
 20
112.4999999999884
 30
0.0
 11
64.999999999993506
 21
112.4999999999884
 31
0.0
  0
LINE
  5
4D
  8
SPEC
  6
CONTINUOUS
 62
     7
 10
-82.499999999991729
 20
119.99999999998759
 30
0.0
 11
-82.499999999991729
 21
108.7499999999884
 31
0.0
  0
TEXT
  5
4E
  8
SPEC
 62
     7
 10
-81.249999999991857
 20
121.3932699999874
 30
0.0
 40
2.4432617187497541
  1
仕様
 41
0.7
 11
-81.249999999991857
 21
123.83653171873721
 31
0.0
 73
     3
  0
LINE
  5
4F
  8
SPEC
  6
CONTINUOUS
 62
     7
 10
-49.999999999994991
 20
119.99999999998759
 30
0.0
 11
-49.999999999994991
 21
108.7499999999884
 31
0.0
  0
LINE
  5
50
  8
SPEC
  6
CONTINUOUS
 62
     7
 10
64.999999999993506
 20
119.99999999998759
 30
0.0
 11
64.999999999993506
 21
108.7499999999884
 31
0.0
  0
TEXT
  5
51
  8
SPEC
 62
     7
 10
-81.696572349755328
 20
113.5039094961524
 30
0.0
 40
1.900311249999808
  1
寸法
 41
0.7
 11
-81.696572349755328
 21
115.40422074615221
 31
0.0
 73
     3
  0
TEXT
  5
52
  8
SPEC
 62
     7
 10
-81.673159373888609
 20
109.70239666343311
 30
0.0
 40
1.900311249999808
  1
質量
 41
0.7
 11
-81.673159373888609
 21
111.60270791343279
 31
0.0
 73
     3
  0
TEXT
  5
53
  8
SPEC
 62
     7
 10
-49.193928532341211
 20
113.40812758742091
 30
0.0
 40
1.900311249999808
  1
\U+03C616.0\U+00D79.0mm
 41
0.7
 11
-49.193928532341211
 21
115.3084388374207
 31
0.0
 73
     3
  0
TEXT
  5
54
  8
SPEC
 62
     7
 10
-49.068948764292529
 20
109.7128093413493
 30
0.0
 40
1.900311249999808
  1
5g
 41
0.7
 11
-49.068948764292529
 21
111.6131205913491
 31
0.0
 73
     3
  0
LINE
  5
55
  8
SPEC
  6
CONTINUOUS
 62
     7
 10
-82.499999999991729
 20
108.7499999999884
 30
0.0
 11
64.999999999993506
 21
108.7499999999884
 31
0.0
  0
TEXT
  5
56
  8
SPEC
 62
     7
 10
-81.607568231690479
 20
117.2539094961524
 30
0.0
 40
1.900311249999808
  1
色
 41
0.7
 11
-81.607568231690479
 21
119.15422074615221
 31
0.0
 73
     3
  0
TEXT
  5
57
  8
SPEC
 62
     7
 10
-49.104884594318243
 20
117.15812758742091
 30
0.0
 40
1.900311249999808
  1
黒
 41
0.7
 11
-49.104884594318243
 21
119.0584388374207
 31
0.0
 73
     3
  0
TEXT
  5
58
  8
DIMNSIONS
 62
     7
 10
-19.999999999998
 20
-117.7305099999885
 30
0.0
 40
2.4432617187497541
  1
(単位：mm)
 41
0.7
 11
-19.999999999998
 21
-115.2872482812388
 31
0.0
 73
     3
  0
LINE
  5
59
  8
DIMNSIONS
  6
CONTINUOUS
 62
     7
 10
5.6568542494923788
 20
5.6568542494923779
 30
0.0
 11
10.0
 21
9.9999999999999982
 31
0.0
  0
LINE
  5
5A
  8
DIMNSIONS
  6
CONTINUOUS
 62
     7
 10
5.6568542494923788
 20
5.6568542494923779
 30
0.0
 11
6.9902028292717873
 21
7.8759189336404489
 31
0.0
  0
LINE
  5
5B
  8
DIMNSIONS
  6
CONTINUOUS
 62
     7
 10
5.6568542494923788
 20
5.6568542494923779
 30
0.0
 11
7.9211003337552839
 21
6.9119463487157962
 31
0.0
  0
LINE
  5
5C
  8
DIMNSIONS
  6
CONTINUOUS
 62
     7
 10
10.0
 20
9.9999999999999982
 30
0.0
 11
22.583333333333339
 21
9.9999999999999982
 31
0.0
  0
TEXT
  5
5D
  8
DIMNSIONS
 62
     7
 10
12.0
 20
10.99388891096744
 30
0.0
 40
2.71473536441369
  1
\U+03C616.0
 41
0.7
 11
12.0
 21
13.70862427538113
 31
0.0
 73
     3
  0
LINE
  5
5E
  8
DIMNSIONS
  6
CONTINUOUS
 62
     7
 10
-9.9999999999999982
 20
-40.0
 30
0.0
 11
-22.0
 21
-40.0
 31
0.0
  0
LINE
  5
5F
  8
DIMNSIONS
  6
CONTINUOUS
 62
     7
 10
-9.9999999999999982
 20
-31.0
 30
0.0
 11
-22.0
 21
-31.0
 31
0.0
  0
LINE
  5
60
  8
DIMNSIONS
  6
CONTINUOUS
 62
     7
 10
-20.0
 20
-40.0
 30
0.0
 11
-20.0
 21
-31.0
 31
0.0
  0
LINE
  5
61
  8
DIMNSIONS
  6
CONTINUOUS
 62
     7
 10
-20.0
 20
-40.0
 30
0.0
 11
-20.670039795150242
 21
-37.49937744140626
 31
0.0
  0
LINE
  5
62
  8
DIMNSIONS
  6
CONTINUOUS
 62
     7
 10
-20.0
 20
-40.0
 30
0.0
 11
-19.329960204849758
 21
-37.49937744140626
 31
0.0
  0
LINE
  5
63
  8
DIMNSIONS
  6
CONTINUOUS
 62
     7
 10
-20.0
 20
-31.0
 30
0.0
 11
-19.329960204849758
 21
-33.500622558593761
 31
0.0
  0
LINE
  5
64
  8
DIMNSIONS
  6
CONTINUOUS
 62
     7
 10
-20.0
 20
-31.0
 30
0.0
 11
-20.670039795150242
 21
-33.500622558593761
 31
0.0
  0
TEXT
  5
65
  8
DIMNSIONS
 62
     7
 10
-20.993888910967449
 20
-38.145833333333343
 30
0.0
 40
2.71473536441369
  1
9.0
 50
90.0
 41
0.7
 11
-23.70862427538114
 21
-38.145833333333343
 31
0.0
 73
     3
  0
TEXT
  5
66
  8
DATA
 62
     7
 10
49.999999999994991
 20
-111.61910999998911
 30
0.0
 40
2.4432617187497541
  1
DPA
 41
0.7
 11
49.999999999994991
 21
-109.1758482812394
 31
0.0
 73
     3
  0
TEXT
  5
67
  8
DATA
 62
     7
 10
48.098449045013282
 20
-114.7259704067161
 30
0.0
 40
1.628843710937337
  1
ディフューズフィールドグリッド
 41
0.7
 11
48.098449045013282
 21
-113.0971266957788
 31
0.0
 73
     3
  0
TEXT
  5
68
  8
DATA
 62
     7
 10
-87.499999999991246
 20
-122.1237222222103
 30
0.0
 40
1.900314670138699
  1
※仕様及び外観は予告なく変更されることがあります。
 41
0.7
 11
-87.499999999991246
 21
-120.22340755207161
 31
0.0
 73
     3
  0
TEXT
  5
69
  8
DATA
 62
     7
 10
-87.499999999991246
 20
-124.5931666666544
 30
0.0
 40
1.900314670138699
  1
　また、同一製品でも若干の個体差があることがあります。ご了承ください。
 41
0.7
 11
-87.499999999991246
 21
-122.6928519965158
 31
0.0
 73
     3
  0
TEXT
  5
6A
  8
DATA
 62
     7
 10
49.999999999994991
 20
-118.7309940367419
 30
0.0
 40
2.4432617187497541
  1
DD0297
 41
0.7
 11
49.999999999994991
 21
-116.28773231799219
 31
0.0
 73
     3
  0
CIRCLE
  5
6B
  8
DATA
  6
CONTINUOUS
 62
     7
 10
0.0
 20
0.0
 30
0.0
 40
8.0
  0
LINE
  5
6C
  8
DATA
  6
CONTINUOUS
 62
     7
 10
8.0
 20
-40.0
 30
0.0
 11
-7.9999999999999982
 21
-40.0
 31
0.0
  0
LINE
  5
6D
  8
DATA
  6
CONTINUOUS
 62
     7
 10
-7.9999999999999982
 20
-32.0
 30
0.0
 11
8.0
 21
-32.0
 31
0.0
  0
LINE
  5
6E
  8
DATA
  6
CONTINUOUS
 62
     7
 10
-0.4999999999999992
 20
-32.0
 30
0.0
 11
-0.4999999999999992
 21
-31.0
 31
0.0
  0
LINE
  5
6F
  8
DATA
  6
CONTINUOUS
 62
     7
 10
0.5000000000000009
 20
-31.0
 30
0.0
 11
0.5000000000000009
 21
-32.0
 31
0.0
  0
LINE
  5
70
  8
DATA
  6
CONTINUOUS
 62
     7
 10
0.9500000000000008
 20
-31.0
 30
0.0
 11
0.9500000000000008
 21
-32.0
 31
0.0
  0
LINE
  5
71
  8
DATA
  6
CONTINUOUS
 62
     7
 10
0.5000000000000009
 20
-31.0
 30
0.0
 11
-0.4999999999999992
 21
-31.0
 31
0.0
  0
LINE
  5
72
  8
DATA
  6
CONTINUOUS
 62
     7
 10
1.95
 20
-31.0
 30
0.0
 11
1.95
 21
-32.0
 31
0.0
  0
LINE
  5
73
  8
DATA
  6
CONTINUOUS
 62
     7
 10
2.399999999999999
 20
-31.0
 30
0.0
 11
2.399999999999999
 21
-32.0
 31
0.0
  0
LINE
  5
74
  8
DATA
  6
CONTINUOUS
 62
     7
 10
1.95
 20
-31.0
 30
0.0
 11
0.9500000000000008
 21
-31.0
 31
0.0
  0
LINE
  5
75
  8
DATA
  6
CONTINUOUS
 62
     7
 10
3.399999999999999
 20
-31.0
 30
0.0
 11
3.399999999999999
 21
-32.0
 31
0.0
  0
LINE
  5
76
  8
DATA
  6
CONTINUOUS
 62
     7
 10
3.850000000000001
 20
-31.0
 30
0.0
 11
3.850000000000001
 21
-32.0
 31
0.0
  0
LINE
  5
77
  8
DATA
  6
CONTINUOUS
 62
     7
 10
3.399999999999999
 20
-31.0
 30
0.0
 11
2.399999999999999
 21
-31.0
 31
0.0
  0
LINE
  5
78
  8
DATA
  6
CONTINUOUS
 62
     7
 10
4.8499999999999988
 20
-31.0
 30
0.0
 11
4.8499999999999988
 21
-32.0
 31
0.0
  0
LINE
  5
79
  8
DATA
  6
CONTINUOUS
 62
     7
 10
5.2999999999999989
 20
-31.0
 30
0.0
 11
5.2999999999999989
 21
-32.0
 31
0.0
  0
LINE
  5
7A
  8
DATA
  6
CONTINUOUS
 62
     7
 10
4.8499999999999988
 20
-31.0
 30
0.0
 11
3.850000000000001
 21
-31.0
 31
0.0
  0
LINE
  5
7B
  8
DATA
  6
CONTINUOUS
 62
     7
 10
6.2999999999999989
 20
-31.0
 30
0.0
 11
6.2999999999999989
 21
-32.0
 31
0.0
  0
LINE
  5
7C
  8
DATA
  6
CONTINUOUS
 62
     7
 10
6.75
 20
-31.0
 30
0.0
 11
6.75
 21
-32.0
 31
0.0
  0
LINE
  5
7D
  8
DATA
  6
CONTINUOUS
 62
     7
 10
6.2999999999999989
 20
-31.0
 30
0.0
 11
5.2999999999999989
 21
-31.0
 31
0.0
  0
LINE
  5
7E
  8
DATA
  6
CONTINUOUS
 62
     7
 10
8.0
 20
-31.0
 30
0.0
 11
6.75
 21
-31.0
 31
0.0
  0
LINE
  5
7F
  8
DATA
  6
CONTINUOUS
 62
     7
 10
-1.9499999999999991
 20
-32.0
 30
0.0
 11
-1.9499999999999991
 21
-31.0
 31
0.0
  0
LINE
  5
80
  8
DATA
  6
CONTINUOUS
 62
     7
 10
-0.9499999999999991
 20
-31.0
 30
0.0
 11
-0.9499999999999991
 21
-32.0
 31
0.0
  0
LINE
  5
81
  8
DATA
  6
CONTINUOUS
 62
     7
 10
-0.9499999999999991
 20
-31.0
 30
0.0
 11
-1.9499999999999991
 21
-31.0
 31
0.0
  0
LINE
  5
82
  8
DATA
  6
CONTINUOUS
 62
     7
 10
-3.399999999999999
 20
-32.0
 30
0.0
 11
-3.399999999999999
 21
-31.0
 31
0.0
  0
LINE
  5
83
  8
DATA
  6
CONTINUOUS
 62
     7
 10
-2.399999999999999
 20
-31.0
 30
0.0
 11
-2.399999999999999
 21
-32.0
 31
0.0
  0
LINE
  5
84
  8
DATA
  6
CONTINUOUS
 62
     7
 10
-2.399999999999999
 20
-31.0
 30
0.0
 11
-3.399999999999999
 21
-31.0
 31
0.0
  0
LINE
  5
85
  8
DATA
  6
CONTINUOUS
 62
     7
 10
-4.849999999999997
 20
-32.0
 30
0.0
 11
-4.849999999999997
 21
-31.0
 31
0.0
  0
LINE
  5
86
  8
DATA
  6
CONTINUOUS
 62
     7
 10
-3.8499999999999992
 20
-31.0
 30
0.0
 11
-3.8499999999999992
 21
-32.0
 31
0.0
  0
LINE
  5
87
  8
DATA
  6
CONTINUOUS
 62
     7
 10
-3.8499999999999992
 20
-31.0
 30
0.0
 11
-4.849999999999997
 21
-31.0
 31
0.0
  0
LINE
  5
88
  8
DATA
  6
CONTINUOUS
 62
     7
 10
-6.299999999999998
 20
-32.0
 30
0.0
 11
-6.299999999999998
 21
-31.0
 31
0.0
  0
LINE
  5
89
  8
DATA
  6
CONTINUOUS
 62
     7
 10
-5.299999999999998
 20
-31.0
 30
0.0
 11
-5.299999999999998
 21
-32.0
 31
0.0
  0
LINE
  5
8A
  8
DATA
  6
CONTINUOUS
 62
     7
 10
-5.299999999999998
 20
-31.0
 30
0.0
 11
-6.299999999999998
 21
-31.0
 31
0.0
  0
LINE
  5
8B
  8
DATA
  6
CONTINUOUS
 62
     7
 10
-6.7499999999999991
 20
-31.0
 30
0.0
 11
-6.7499999999999991
 21
-32.0
 31
0.0
  0
LINE
  5
8C
  8
DATA
  6
CONTINUOUS
 62
     7
 10
-6.7499999999999991
 20
-31.0
 30
0.0
 11
-7.9999999999999982
 21
-31.0
 31
0.0
  0
LINE
  5
8D
  8
DATA
  6
CONTINUOUS
 62
     7
 10
0.0000000000000005
 20
8.0
 30
0.0
 11
0.0000000000000002
 21
2.9999999999999969
 31
0.0
  0
LINE
  5
8E
  8
DATA
  6
CONTINUOUS
 62
     7
 10
1.5607225761290291
 20
7.846282243225839
 30
0.0
 11
0.5852709660483864
 21
2.94235584120969
 31
0.0
  0
LINE
  5
8F
  8
DATA
  6
CONTINUOUS
 62
     7
 10
3.0614674589207231
 20
7.3910362600902912
 30
0.0
 11
1.1480502970952691
 21
2.7716385975338582
 31
0.0
  0
LINE
  5
90
  8
DATA
  6
CONTINUOUS
 62
     7
 10
4.4445618641568174
 20
6.6517568984203601
 30
0.0
 11
1.6667106990588061
 21
2.494408836907632
 31
0.0
  0
LINE
  5
91
  8
DATA
  6
CONTINUOUS
 62
     7
 10
5.6568542494923797
 20
5.656854249492377
 30
0.0
 11
2.1213203435596411
 21
2.1213203435596402
 31
0.0
  0
LINE
  5
92
  8
DATA
  6
CONTINUOUS
 62
     7
 10
6.6517568984203619
 20
4.444561864156813
 30
0.0
 11
2.494408836907636
 21
1.6667106990588041
 31
0.0
  0
LINE
  5
93
  8
DATA
  6
CONTINUOUS
 62
     7
 10
7.3910362600902939
 20
3.06146745892072
 30
0.0
 11
2.7716385975338582
 21
1.1480502970952691
 31
0.0
  0
LINE
  5
94
  8
DATA
  6
CONTINUOUS
 62
     7
 10
7.8462822432258408
 20
1.5607225761290251
 30
0.0
 11
2.9423558412096922
 21
0.5852709660483847
 31
0.0
  0
LINE
  5
95
  8
DATA
  6
CONTINUOUS
 62
     7
 10
8.0
 20
-0.0000000000000021
 30
0.0
 11
0.0
 21
-0.0000000000000009
 31
0.0
  0
LINE
  5
96
  8
DATA
  6
CONTINUOUS
 62
     7
 10
8.0
 20
-0.0000000000000021
 30
0.0
 11
0.0
 21
-0.0000000000000009
 31
0.0
  0
LINE
  5
97
  8
DATA
  6
CONTINUOUS
 62
     7
 10
7.8462822432258408
 20
-1.5607225761290291
 30
0.0
 11
2.94235584120969
 21
-0.5852709660483868
 31
0.0
  0
LINE
  5
98
  8
DATA
  6
CONTINUOUS
 62
     7
 10
7.3910362600902912
 20
-3.0614674589207231
 30
0.0
 11
2.7716385975338591
 21
-1.1480502970952711
 31
0.0
  0
LINE
  5
99
  8
DATA
  6
CONTINUOUS
 62
     7
 10
6.651756898420361
 20
-4.4445618641568174
 30
0.0
 11
2.4944088369076352
 21
-1.6667106990588061
 31
0.0
  0
LINE
  5
9A
  8
DATA
  6
CONTINUOUS
 62
     7
 10
5.656854249492377
 20
-5.6568542494923797
 30
0.0
 11
2.1213203435596411
 21
-2.121320343559645
 31
0.0
  0
LINE
  5
9B
  8
DATA
  6
CONTINUOUS
 62
     7
 10
4.444561864156813
 20
-6.6517568984203619
 30
0.0
 11
1.6667106990588041
 21
-2.4944088369076352
 31
0.0
  0
LINE
  5
9C
  8
DATA
  6
CONTINUOUS
 62
     7
 10
3.06146745892072
 20
-7.391036260090293
 30
0.0
 11
1.1480502970952691
 21
-2.7716385975338591
 31
0.0
  0
LINE
  5
9D
  8
DATA
  6
CONTINUOUS
 62
     7
 10
1.5607225761290251
 20
-7.8462822432258408
 30
0.0
 11
0.5852709660483857
 21
-2.9423558412096931
 31
0.0
  0
LINE
  5
9E
  8
DATA
  6
CONTINUOUS
 62
     7
 10
-0.0000000000000015
 20
-8.0
 30
0.0
 11
-0.0000000000000006
 21
-3.0000000000000022
 31
0.0
  0
LINE
  5
9F
  8
DATA
  6
CONTINUOUS
 62
     7
 10
-1.5607225761290291
 20
-7.846282243225839
 30
0.0
 11
-0.5852709660483862
 21
-2.9423558412096922
 31
0.0
  0
LINE
  5
A0
  8
DATA
  6
CONTINUOUS
 62
     7
 10
-3.0614674589207209
 20
-7.3910362600902912
 30
0.0
 11
-1.1480502970952711
 21
-2.77163859753386
 31
0.0
  0
LINE
  5
A1
  8
DATA
  6
CONTINUOUS
 62
     7
 10
-4.4445618641568174
 20
-6.6517568984203619
 30
0.0
 11
-1.6667106990588061
 21
-2.4944088369076352
 31
0.0
  0
LINE
  5
A2
  8
DATA
  6
CONTINUOUS
 62
     7
 10
-5.6568542494923788
 20
-5.6568542494923779
 30
0.0
 11
-2.1213203435596442
 21
-2.1213203435596442
 31
0.0
  0
LINE
  5
A3
  8
DATA
  6
CONTINUOUS
 62
     7
 10
-6.6517568984203628
 20
-4.4445618641568148
 30
0.0
 11
-2.4944088369076352
 21
-1.6667106990588061
 31
0.0
  0
LINE
  5
A4
  8
DATA
  6
CONTINUOUS
 62
     7
 10
-1.4648275389111061
 20
7.8647492192216539
 30
0.0
 11
-0.5493103270916656
 21
2.9492809572081189
 31
0.0
  0
LINE
  5
A5
  8
DATA
  6
CONTINUOUS
 62
     7
 10
-2.971017746247349
 20
7.4278565920111363
 30
0.0
 11
-1.1141316548427549
 21
2.785446222004174
 31
0.0
  0
LINE
  5
A6
  8
DATA
  6
CONTINUOUS
 62
     7
 10
-4.4445618641568139
 20
6.6517568984203619
 30
0.0
 11
-1.6667106990588041
 21
2.494408836907632
 31
0.0
  0
LINE
  5
A7
  8
DATA
  6
CONTINUOUS
 62
     7
 10
-5.656854249492377
 20
5.6568542494923779
 30
0.0
 11
-2.1213203435596402
 21
2.1213203435596402
 31
0.0
  0
LINE
  5
A8
  8
DATA
  6
CONTINUOUS
 62
     7
 10
-6.651756898420361
 20
4.4445618641568174
 30
0.0
 11
-2.4944088369076352
 21
1.6667106990588061
 31
0.0
  0
LINE
  5
A9
  8
DATA
  6
CONTINUOUS
 62
     7
 10
-7.3910362600902939
 20
3.06146745892072
 30
0.0
 11
-2.7716385975338582
 21
1.1480502970952691
 31
0.0
  0
LINE
  5
AA
  8
DATA
  6
CONTINUOUS
 62
     7
 10
-7.8462822432258408
 20
1.560722576129028
 30
0.0
 11
-2.94235584120969
 21
0.5852709660483847
 31
0.0
  0
LINE
  5
AB
  8
DATA
  6
CONTINUOUS
 62
     7
 10
-8.0
 20
0.000000000000001
 30
0.0
 11
-3.0
 21
0.0000000000000004
 31
0.0
  0
LINE
  5
AC
  8
DATA
  6
CONTINUOUS
 62
     7
 10
-7.8462822432258452
 20
-1.5607225761290271
 30
0.0
 11
-2.9423558412096922
 21
-0.5852709660483865
 31
0.0
  0
LINE
  5
AD
  8
DATA
  6
CONTINUOUS
 62
     7
 10
-7.3910362600902939
 20
-3.061467458920716
 30
0.0
 11
-2.7716385975338591
 21
-1.148050297095268
 31
0.0
  0
ARC
  5
AE
  8
DATA
  6
CONTINUOUS
 62
     7
 10
0.0000000000000322
 20
0.0000000000000924
 30
0.0
 40
4.4999999999998987
 50
78.750000000000142
 51
90.000000000000455
  0
ARC
  5
AF
  8
DATA
  6
CONTINUOUS
 62
     7
 10
0.0000000000000322
 20
0.0000000000000924
 30
0.0
 40
4.4999999999998987
 50
100.55057899855871
 51
111.8005789985589
  0
ARC
  5
B0
  8
DATA
  6
CONTINUOUS
 62
     7
 10
0.0000000000000322
 20
0.0000000000000924
 30
0.0
 40
4.4999999999998987
 50
123.75000000000099
 51
135.00000000000111
  0
ARC
  5
B1
  8
DATA
  6
CONTINUOUS
 62
     7
 10
0.0000000000000322
 20
0.0000000000000924
 30
0.0
 40
4.4999999999998979
 50
146.25000000000119
 51
157.50000000000131
  0
ARC
  5
B2
  8
DATA
  6
CONTINUOUS
 62
     7
 10
0.0000000000000322
 20
0.0000000000000924
 30
0.0
 40
4.4999999999998987
 50
168.75000000000119
 51
180.00000000000111
  0
ARC
  5
B3
  8
DATA
  6
CONTINUOUS
 62
     7
 10
0.0000000000000322
 20
0.0000000000000924
 30
0.0
 40
4.4999999999998987
 50
191.25000000000111
 51
202.50000000000091
  0
ARC
  5
B4
  8
DATA
  6
CONTINUOUS
 62
     7
 10
0.0000000000000322
 20
0.0000000000000924
 30
0.0
 40
4.4999999999998987
 50
213.7500000000006
 51
225.0000000000004
  0
ARC
  5
B5
  8
DATA
  6
CONTINUOUS
 62
     7
 10
0.0000000000000322
 20
0.0000000000000924
 30
0.0
 40
4.4999999999998987
 50
236.2500000000002
 51
247.5
  0
ARC
  5
B6
  8
DATA
  6
CONTINUOUS
 62
     7
 10
0.0000000000000322
 20
0.0000000000000924
 30
0.0
 40
4.4999999999998987
 50
258.74999999999972
 51
269.9999999999996
  0
ARC
  5
B7
  8
DATA
  6
CONTINUOUS
 62
     7
 10
0.0000000000000322
 20
0.0000000000000924
 30
0.0
 40
4.4999999999998987
 50
281.24999999999937
 51
292.49999999999932
  0
ARC
  5
B8
  8
DATA
  6
CONTINUOUS
 62
     7
 10
0.0000000000000322
 20
0.0000000000000924
 30
0.0
 40
4.4999999999998987
 50
303.74999999999892
 51
314.99999999999892
  0
ARC
  5
B9
  8
DATA
  6
CONTINUOUS
 62
     7
 10
0.0000000000000322
 20
0.0000000000000924
 30
0.0
 40
4.4999999999998987
 50
326.24999999999881
 51
337.49999999999881
  0
ARC
  5
BA
  8
DATA
  6
CONTINUOUS
 62
     7
 10
0.0000000000000322
 20
0.0000000000000924
 30
0.0
 40
4.4999999999998987
 50
348.74999999999869
 51
359.99999999999881
  0
ARC
  5
BB
  8
DATA
  6
CONTINUOUS
 62
     7
 10
0.0000000000000322
 20
0.0000000000000924
 30
0.0
 40
4.4999999999998987
 50
11.249999999998931
 51
22.499999999999041
  0
ARC
  5
BC
  8
DATA
  6
CONTINUOUS
 62
     7
 10
0.0000000000000322
 20
0.0000000000000924
 30
0.0
 40
4.4999999999998987
 50
33.749999999999162
 51
44.999999999999453
  0
ARC
  5
BD
  8
DATA
  6
CONTINUOUS
 62
     7
 10
0.0000000000000322
 20
0.0000000000000924
 30
0.0
 40
4.4999999999998987
 50
56.249999999999801
 51
67.500000000000014
  0
CIRCLE
  5
BE
  8
DATA
  6
CONTINUOUS
 62
     7
 10
0.0
 20
-0.0000000000000018
 30
0.0
 40
3.0
  0
LINE
  5
BF
  8
DATA
  6
CONTINUOUS
 62
     7
 10
-7.9999999999999982
 20
-40.0
 30
0.0
 11
-7.9999999999999982
 21
-31.0
 31
0.0
  0
LINE
  5
C0
  8
DATA
  6
CONTINUOUS
 62
     7
 10
8.0
 20
-31.0
 30
0.0
 11
8.0
 21
-40.0
 31
0.0
  0
ARC
  5
C1
  8
DATA
  6
CONTINUOUS
 62
     7
 10
0.0000000000000255
 20
0.0000000000000711
 30
0.0
 40
6.9999999999999227
 50
78.750000000000071
 51
90.000000000000213
  0
ARC
  5
C2
  8
DATA
  6
CONTINUOUS
 62
     7
 10
0.0000000000000255
 20
0.0000000000000711
 30
0.0
 40
6.9999999999999227
 50
100.55057899855829
 51
111.80057899855839
  0
ARC
  5
C3
  8
DATA
  6
CONTINUOUS
 62
     7
 10
0.0000000000000255
 20
0.0000000000000711
 30
0.0
 40
6.9999999999999227
 50
123.7500000000005
 51
135.00000000000051
  0
ARC
  5
C4
  8
DATA
  6
CONTINUOUS
 62
     7
 10
0.0000000000000255
 20
0.0000000000000711
 30
0.0
 40
6.9999999999999227
 50
146.2500000000006
 51
157.5000000000006
  0
ARC
  5
C5
  8
DATA
  6
CONTINUOUS
 62
     7
 10
0.0000000000000255
 20
0.0000000000000711
 30
0.0
 40
6.9999999999999227
 50
168.7500000000006
 51
180.00000000000051
  0
ARC
  5
C6
  8
DATA
  6
CONTINUOUS
 62
     7
 10
0.0000000000000255
 20
0.0000000000000711
 30
0.0
 40
6.9999999999999227
 50
191.2500000000004
 51
202.5000000000004
  0
ARC
  5
C7
  8
DATA
  6
CONTINUOUS
 62
     7
 10
0.0000000000000255
 20
0.0000000000000711
 30
0.0
 40
6.9999999999999263
 50
213.75000000000051
 51
225.00000000000011
  0
ARC
  5
C8
  8
DATA
  6
CONTINUOUS
 62
     7
 10
0.0000000000000255
 20
0.0000000000000711
 30
0.0
 40
6.9999999999999227
 50
236.25000000000011
 51
247.5
  0
ARC
  5
C9
  8
DATA
  6
CONTINUOUS
 62
     7
 10
0.0000000000000255
 20
0.0000000000000711
 30
0.0
 40
6.9999999999999227
 50
258.74999999999972
 51
269.99999999999972
  0
ARC
  5
CA
  8
DATA
  6
CONTINUOUS
 62
     7
 10
0.0000000000000255
 20
0.0000000000000711
 30
0.0
 40
6.9999999999999227
 50
281.24999999999972
 51
292.4999999999996
  0
ARC
  5
CB
  8
DATA
  6
CONTINUOUS
 62
     7
 10
0.0000000000000255
 20
0.0000000000000711
 30
0.0
 40
6.9999999999999227
 50
303.74999999999937
 51
314.99999999999949
  0
ARC
  5
CC
  8
DATA
  6
CONTINUOUS
 62
     7
 10
0.0000000000000255
 20
0.0000000000000711
 30
0.0
 40
6.9999999999999227
 50
326.24999999999937
 51
337.49999999999932
  0
ARC
  5
CD
  8
DATA
  6
CONTINUOUS
 62
     7
 10
0.0000000000000255
 20
0.0000000000000711
 30
0.0
 40
6.9999999999999227
 50
348.74999999999932
 51
359.99999999999937
  0
ARC
  5
CE
  8
DATA
  6
CONTINUOUS
 62
     7
 10
0.0000000000000255
 20
0.0000000000000711
 30
0.0
 40
6.9999999999999227
 50
11.24999999999944
 51
22.499999999999499
  0
ARC
  5
CF
  8
DATA
  6
CONTINUOUS
 62
     7
 10
0.0000000000000255
 20
0.0000000000000711
 30
0.0
 40
6.9999999999999263
 50
33.749999999999567
 51
44.999999999999723
  0
ARC
  5
D0
  8
DATA
  6
CONTINUOUS
 62
     7
 10
0.0000000000000255
 20
0.0000000000000711
 30
0.0
 40
6.9999999999999227
 50
56.249999999999908
 51
67.499999999999972
  0
ENDSEC
  0
EOF
