  0
SECTION
  2
HEADER
  9
$ACADVER
  1
AC1009
  9
$INSBASE
 10
0.0
 20
0.0
 30
0.0
  9
$EXTMIN
 10
9.9963383446405487
 20
2.3983744938330078
 30
-0.0015258207003583
  9
$EXTMAX
 10
190.00579878222879
 20
270.00824037474621
 30
0.0000000349246037
  9
$LIMMIN
 10
0.0
 20
0.0
  9
$LIMMAX
 10
0.0
 20
0.0
  9
$ORTHOMODE
 70
     0
  9
$REGENMODE
 70
     1
  9
$FILLMODE
 70
     1
  9
$QTEXTMODE
 70
     0
  9
$MIRRTEXT
 70
     1
  9
$DRAGMODE
 70
     2
  9
$LTSCALE
 40
25.399999999999999
  9
$OSMODE
 70
   231
  9
$ATTMODE
 70
     1
  9
$TEXTSIZE
 40
0.0
  9
$TRACEWID
 40
1.0
  9
$TEXTSTYLE
  7
STANDARD
  9
$CLAYER
  8
DATA
  9
$CELTYPE
  6
BYLAYER
  9
$CECOLOR
 62
   256
  9
$DIMSCALE
 40
1.0
  9
$DIMASZ
 40
0.18
  9
$DIMEXO
 40
0.0625
  9
$DIMDLI
 40
0.38
  9
$DIMRND
 40
0.0
  9
$DIMDLE
 40
0.0
  9
$DIMEXE
 40
0.18
  9
$DIMTP
 40
0.0
  9
$DIMTM
 40
0.0
  9
$DIMTXT
 40
0.18
  9
$DIMCEN
 40
0.09
  9
$DIMTSZ
 40
0.0
  9
$DIMTOL
 70
     0
  9
$DIMLIM
 70
     0
  9
$DIMTIH
 70
     1
  9
$DIMTOH
 70
     1
  9
$DIMSE1
 70
     0
  9
$DIMSE2
 70
     0
  9
$DIMTAD
 70
     0
  9
$DIMZIN
 70
     0
  9
$DIMBLK
  1

  9
$DIMASO
 70
     1
  9
$DIMSHO
 70
     1
  9
$DIMPOST
  1

  9
$DIMAPOST
  1

  9
$DIMALT
 70
     0
  9
$DIMALTD
 70
     2
  9
$DIMALTF
 40
25.399999999999999
  9
$DIMLFAC
 40
1.0
  9
$DIMTOFL
 70
     0
  9
$DIMTVP
 40
0.0
  9
$DIMTIX
 70
     0
  9
$DIMSOXD
 70
     0
  9
$DIMSAH
 70
     0
  9
$DIMBLK1
  1

  9
$DIMBLK2
  1

  9
$DIMSTYLE
  2
STANDARD
  9
$DIMCLRD
 70
     0
  9
$DIMCLRE
 70
     0
  9
$DIMCLRT
 70
     0
  9
$DIMTFAC
 40
1.0
  9
$DIMGAP
 40
0.09
  9
$LUNITS
 70
     2
  9
$LUPREC
 70
     4
  9
$SKETCHINC
 40
0.1
  9
$FILLETRAD
 40
0.0
  9
$AUNITS
 70
     0
  9
$AUPREC
 70
     0
  9
$MENU
  1
acad
  9
$ELEVATION
 40
0.0
  9
$PELEVATION
 40
0.0
  9
$THICKNESS
 40
0.0
  9
$LIMCHECK
 70
     0
  9
$BLIPMODE
 70
     0
  9
$CHAMFERA
 40
0.0
  9
$CHAMFERB
 40
0.0
  9
$SKPOLY
 70
     0
  9
$TDCREATE
 40
2456597.4676504629
  9
$TDUPDATE
 40
2456597.4682037039
  9
$TDINDWG
 40
0.0004437731
  9
$TDUSRTIMER
 40
0.0004433912
  9
$USRTIMER
 70
     1
  9
$ANGBASE
 50
0.0
  9
$ANGDIR
 70
     0
  9
$PDMODE
 70
     1
  9
$PDSIZE
 40
-2.0
  9
$PLINEWID
 40
0.0
  9
$COORDS
 70
     2
  9
$SPLFRAME
 70
     0
  9
$SPLINETYPE
 70
     6
  9
$SPLINESEGS
 70
     8
  9
$ATTDIA
 70
     0
  9
$ATTREQ
 70
     1
  9
$HANDLING
 70
     1
  9
$HANDSEED
  5
18C
  9
$SURFTAB1
 70
     6
  9
$SURFTAB2
 70
     6
  9
$SURFTYPE
 70
     6
  9
$SURFU
 70
     6
  9
$SURFV
 70
     6
  9
$UCSNAME
  2

  9
$UCSORG
 10
0.0
 20
0.0
 30
0.0
  9
$UCSXDIR
 10
1.0
 20
0.0
 30
0.0
  9
$UCSYDIR
 10
0.0
 20
1.0
 30
0.0
  9
$PUCSNAME
  2

  9
$PUCSORG
 10
0.0
 20
0.0
 30
0.0
  9
$PUCSXDIR
 10
1.0
 20
0.0
 30
0.0
  9
$PUCSYDIR
 10
0.0
 20
1.0
 30
0.0
  9
$USERI1
 70
     0
  9
$USERI2
 70
     0
  9
$USERI3
 70
     0
  9
$USERI4
 70
     0
  9
$USERI5
 70
     0
  9
$USERR1
 40
0.0
  9
$USERR2
 40
0.0
  9
$USERR3
 40
0.0
  9
$USERR4
 40
0.0
  9
$USERR5
 40
0.0
  9
$WORLDVIEW
 70
     1
  9
$SHADEDGE
 70
     3
  9
$SHADEDIF
 70
    70
  9
$TILEMODE
 70
     1
  9
$MAXACTVP
 70
    64
  9
$PLIMCHECK
 70
     0
  9
$PEXTMIN
 10
1.0000000000000000E+020
 20
1.0000000000000000E+020
 30
1.0000000000000000E+020
  9
$PEXTMAX
 10
-1.0000000000000000E+020
 20
-1.0000000000000000E+020
 30
-1.0000000000000000E+020
  9
$PLIMMIN
 10
0.0
 20
0.0
  9
$PLIMMAX
 10
12.0
 20
9.0
  9
$UNITMODE
 70
     0
  9
$VISRETAIN
 70
     0
  9
$PLINEGEN
 70
     1
  9
$PSLTSCALE
 70
     0
  0
ENDSEC
  0
SECTION
  2
TABLES
  0
TABLE
  2
VPORT
 70
     1
  0
VPORT
  2
*ACTIVE
 70
     0
 10
0.0
 20
0.0
 11
1.0
 21
1.0
 12
100.0010685634347
 22
136.46255556198599
 13
0.0
 23
0.0
 14
1.0
 24
1.0
 15
0.0
 25
0.0
 16
0.0
 26
0.0
 36
1.0
 17
0.0
 27
0.0
 37
0.0
 40
269.19445127611482
 41
2.1787122207621552
 42
50.0
 43
0.0
 44
0.0
 50
0.0
 51
0.0
 71
     0
 72
  2000
 73
     1
 74
     1
 75
     0
 76
     0
 77
     0
 78
     0
  0
ENDTAB
  0
TABLE
  2
LTYPE
 70
     2
  0
LTYPE
  2
CONTINUOUS
 70
     0
  3
Solid line
 72
    65
 73
     0
 40
0.0
  0
ENDTAB
  0
TABLE
  2
LAYER
 70
     5
  0
LAYER
  2
0
 70
     0
 62
     7
  6
CONTINUOUS
  0
LAYER
  2
DATA
 70
     0
 62
     7
  6
CONTINUOUS
  0
LAYER
  2
HIBINO-BASE
 70
     0
 62
     7
  6
CONTINUOUS
  0
LAYER
  2
SPEC
 70
     0
 62
     7
  6
CONTINUOUS
  0
LAYER
  2
DIMNSIONS
 70
     0
 62
     7
  6
CONTINUOUS
  0
ENDTAB
  0
TABLE
  2
STYLE
 70
     3
  0
STYLE
  2
STANDARD
 70
     0
 40
0.0
 41
1.0
 50
0.0
 71
     0
 42
0.0
  3
txt
  4
BIGFONT.SHX
  0
ENDTAB
  0
TABLE
  2
VIEW
 70
     0
  0
ENDTAB
  0
TABLE
  2
UCS
 70
     0
  0
ENDTAB
  0
TABLE
  2
APPID
 70
     4
  0
APPID
  2
ACAD
 70
     0
  0
APPID
  2
ACADANNOTATIVE
 70
     0
  0
APPID
  2
ACAD_NAV_VCDISPLAY
 70
     0
  0
APPID
  2
ACAD_MLEADERVER
 70
     0
  0
ENDTAB
  0
TABLE
  2
DIMSTYLE
 70
     2
  0
DIMSTYLE
  2
STANDARD
 70
     0
  3

  4

  5

  6

  7

 40
1.0
 41
0.18
 42
0.0625
 43
0.38
 44
0.18
 45
0.0
 46
0.0
 47
0.0
 48
0.0
140
0.18
141
0.09
142
0.0
143
25.399999999999999
144
1.0
145
0.0
146
1.0
147
0.09
 71
     0
 72
     0
 73
     1
 74
     1
 75
     0
 76
     0
 77
     0
 78
     0
170
     0
171
     2
172
     0
173
     0
174
     0
175
     0
176
     0
177
     0
178
     0
  0
ENDTAB
  0
ENDSEC
  0
SECTION
  2
BLOCKS
  0
BLOCK
  8
0
  2
$MODEL_SPACE
 70
     0
 10
0.0
 20
0.0
 30
0.0
  3
$MODEL_SPACE
  1

  0
ENDBLK
  5
124
  8
0
  0
BLOCK
 67
     1
  8
0
  2
$PAPER_SPACE
 70
     0
 10
0.0
 20
0.0
 30
0.0
  3
$PAPER_SPACE
  1

  0
ENDBLK
  5
120
 67
     1
  8
0
  0
ENDSEC
  0
SECTION
  2
ENTITIES
  0
LINE
  5
23
  8
HIBINO-BASE
  6
CONTINUOUS
 62
     7
 10
10.0
 20
270.0
 30
0.0
 11
190.0
 21
270.0
 31
0.0
  0
LINE
  5
24
  8
HIBINO-BASE
  6
CONTINUOUS
 62
     7
 10
190.0
 20
10.0
 30
0.0
 11
10.0
 21
10.0
 31
0.0
  0
LINE
  5
25
  8
HIBINO-BASE
  6
CONTINUOUS
 62
     7
 10
10.0
 20
10.0
 30
0.0
 11
10.0
 21
270.0
 31
0.0
  0
LINE
  5
26
  8
HIBINO-BASE
  6
CONTINUOUS
 62
     7
 10
190.0
 20
270.0
 30
0.0
 11
190.0
 21
10.0
 31
0.0
  0
LINE
  5
27
  8
HIBINO-BASE
  6
CONTINUOUS
 62
     7
 10
100.0
 20
32.500000000000007
 30
0.0
 11
190.0
 21
32.500000000000007
 31
0.0
  0
LINE
  5
28
  8
HIBINO-BASE
  6
CONTINUOUS
 62
     7
 10
100.0
 20
10.0
 30
0.0
 11
100.0
 21
32.500000000000007
 31
0.0
  0
TEXT
  5
29
  8
HIBINO-BASE
 62
     7
 10
100.90000000000001
 20
29.991306666666681
 30
0.0
 40
1.6288411458333329
  1
NOTE
 41
0.7
 11
100.90000000000001
 21
31.620147812500011
 31
0.0
 73
     3
  0
LINE
  5
2A
  8
HIBINO-BASE
  6
CONTINUOUS
 62
     7
 10
135.0
 20
10.0
 30
0.0
 11
135.0
 21
32.500000000000007
 31
0.0
  0
TEXT
  5
2B
  8
HIBINO-BASE
 62
     7
 10
135.89999999999989
 20
29.991306666666681
 30
0.0
 40
1.6288411458333329
  1
TITLE
 41
0.7
 11
135.89999999999989
 21
31.620147812500011
 31
0.0
 73
     3
  0
LINE
  5
2C
  8
HIBINO-BASE
  6
CONTINUOUS
 62
     7
 10
100.0
 20
20.000000000000011
 30
0.0
 11
190.0
 21
20.000000000000011
 31
0.0
  0
TEXT
  5
2D
  8
HIBINO-BASE
 62
     7
 10
148.39999999999989
 20
17.54762666666667
 30
0.0
 40
1.6288411458333329
  1
DRAWN
 41
0.7
 11
148.39999999999989
 21
19.176467812500011
 31
0.0
 73
     3
  0
TEXT
  5
2E
  8
HIBINO-BASE
 62
     7
 10
123.39999999999991
 20
17.54762666666667
 30
0.0
 40
1.6288411458333329
  1
DATE
 41
0.7
 11
123.39999999999991
 21
19.176467812500011
 31
0.0
 73
     3
  0
TEXT
  5
2F
  8
HIBINO-BASE
 62
     7
 10
113.40000000000001
 20
17.54762666666667
 30
0.0
 40
1.6288411458333329
  1
SCALE
 41
0.7
 11
113.40000000000001
 21
19.176467812500011
 31
0.0
 73
     3
  0
TEXT
  5
30
  8
HIBINO-BASE
 62
     7
 10
135.89999999999989
 20
17.54762666666667
 30
0.0
 40
1.6288411458333329
  1
DESIGN
 41
0.7
 11
135.89999999999989
 21
19.176467812500011
 31
0.0
 73
     3
  0
TEXT
  5
31
  8
HIBINO-BASE
 62
     7
 10
173.39999999999989
 20
17.54762666666667
 30
0.0
 40
1.6288411458333329
  1
DRAWING NO.
 41
0.7
 11
173.39999999999989
 21
19.176467812500011
 31
0.0
 73
     3
  0
TEXT
  5
32
  8
HIBINO-BASE
 62
     7
 10
160.89999999999989
 20
17.54762666666667
 30
0.0
 40
1.6288411458333329
  1
CHECK
 41
0.7
 11
160.89999999999989
 21
19.176467812500011
 31
0.0
 73
     3
  0
LINE
  5
33
  8
HIBINO-BASE
  6
CONTINUOUS
 62
     7
 10
114.375
 20
11.25
 30
0.0
 11
118.125
 21
15.000000000000011
 31
0.0
  0
TEXT
  5
34
  8
HIBINO-BASE
 62
     7
 10
113.75
 20
13.891056666666669
 30
0.0
 40
1.6288411458333329
  1
1
 41
0.7
 11
113.75
 21
15.5198978125
 31
0.0
 73
     3
  0
LINE
  5
35
  8
HIBINO-BASE
  6
CONTINUOUS
 62
     7
 10
112.5
 20
10.0
 30
0.0
 11
112.5
 21
20.000000000000011
 31
0.0
  0
LINE
  5
36
  8
HIBINO-BASE
  6
CONTINUOUS
 62
     7
 10
122.5
 20
10.0
 30
0.0
 11
122.5
 21
20.000000000000011
 31
0.0
  0
LINE
  5
37
  8
HIBINO-BASE
  6
CONTINUOUS
 62
     7
 10
147.49999999999989
 20
20.000000000000011
 30
0.0
 11
147.49999999999989
 21
10.0
 31
0.0
  0
LINE
  5
38
  8
HIBINO-BASE
  6
CONTINUOUS
 62
     7
 10
172.5
 20
20.000000000000011
 30
0.0
 11
172.5
 21
10.0
 31
0.0
  0
LINE
  5
39
  8
HIBINO-BASE
  6
CONTINUOUS
 62
     7
 10
159.99999999999989
 20
10.0
 30
0.0
 11
159.99999999999989
 21
20.000000000000011
 31
0.0
  0
TEXT
  5
3A
  8
HIBINO-BASE
 62
     7
 10
123.35654
 20
12.86364666666667
 30
0.0
 40
1.6288411458333329
  1
'13.10.
 41
0.7
 11
123.35654
 21
14.4924878125
 31
0.0
 73
     3
  0
TEXT
  5
3B
  8
HIBINO-BASE
 62
     7
 10
117.5
 20
12.016056666666669
 30
0.0
 40
1.6288411458333329
  1
1
 41
0.7
 11
117.5
 21
13.6448978125
 31
0.0
 73
     3
  0
TEXT
  5
3C
  8
HIBINO-BASE
 62
     7
 10
149.00581001103461
 20
12.86364666666667
 30
0.0
 40
1.6288411458333329
  1
Ootake
 41
0.7
 11
149.00581001103461
 21
14.4924878125
 31
0.0
 73
     3
  0
TEXT
  5
3D
  8
HIBINO-BASE
 62
     7
 10
103.8833333333333
 20
11.97600000000001
 30
0.0
 40
3.2576822916666659
  1
A4
 41
0.7
 11
103.8833333333333
 21
15.23368229166668
 31
0.0
 73
     3
  0
TEXT
  5
3E
  8
HIBINO-BASE
 62
     7
 10
100.9583333333333
 20
17.380545000000009
 30
0.0
 40
1.6288411458333329
  1
PAPER SIZE
 41
0.7
 11
100.9583333333333
 21
19.009386145833339
 31
0.0
 73
     3
  0
TEXT
  5
3F
  8
HIBINO-BASE
 62
     7
 10
12.75963525689018
 20
3.5747597658237509
 30
0.0
 40
3.5291558159722221
  1
Hibino-Intersound Corporation
 41
0.7
 11
12.75963525689018
 21
7.1039155817959729
 31
0.0
 73
     3
  0
TEXT
  5
40
  8
HIBINO-BASE
 62
     7
 10
120.18060968021391
 20
3.9258480191131699
 30
0.0
 40
3.5291558159722221
  1
ヒビノインターサウンド株式会社
 41
0.7
 11
120.18060968021391
 21
7.4550038350853924
 31
0.0
 73
     3
  0
LINE
  5
41
  8
SPEC
  6
CONTINUOUS
 62
     7
 10
17.5
 20
260.0
 30
0.0
 11
165.0
 21
260.0
 31
0.0
  0
LINE
  5
42
  8
SPEC
  6
CONTINUOUS
 62
     7
 10
17.5
 20
256.25
 30
0.0
 11
165.0
 21
256.25
 31
0.0
  0
LINE
  5
43
  8
SPEC
  6
CONTINUOUS
 62
     7
 10
17.5
 20
252.5
 30
0.0
 11
165.0
 21
252.5
 31
0.0
  0
LINE
  5
44
  8
SPEC
  6
CONTINUOUS
 62
     7
 10
17.5
 20
260.0
 30
0.0
 11
17.5
 21
252.5
 31
0.0
  0
TEXT
  5
45
  8
SPEC
 62
     7
 10
18.75
 20
261.39326999999997
 30
0.0
 40
2.4432617187500001
  1
仕様
 41
0.7
 11
18.75
 21
263.83653171875
 31
0.0
 73
     3
  0
LINE
  5
46
  8
SPEC
  6
CONTINUOUS
 62
     7
 10
50.0
 20
260.0
 30
0.0
 11
50.0
 21
252.5
 31
0.0
  0
LINE
  5
47
  8
SPEC
  6
CONTINUOUS
 62
     7
 10
165.0
 20
260.0
 30
0.0
 11
165.0
 21
252.5
 31
0.0
  0
TEXT
  5
48
  8
SPEC
 62
     7
 10
18.287460849109721
 20
257.24697922240478
 30
0.0
 40
1.900314670138888
  1
寸法(W\U+00D7H\U+00D7D)
 41
0.7
 11
18.287460849109721
 21
259.14729389254359
 31
0.0
 73
     3
  0
TEXT
  5
49
  8
SPEC
 62
     7
 10
50.773168090950101
 20
257.13806996242852
 30
0.0
 40
1.900314670138888
  1
109\U+00D731.0\U+00D720.0mm(除突起部)
 41
0.7
 11
50.773168090950101
 21
259.03838463256739
 31
0.0
 73
     3
  0
TEXT
  5
4A
  8
SPEC
 62
     7
 10
50.897604974881439
 20
253.4946013572856
 30
0.0
 40
1.900314670138888
  1
21g
 41
0.7
 11
50.897604974881439
 21
255.3949160274245
 31
0.0
 73
     3
  0
TEXT
  5
4B
  8
SPEC
 62
     7
 10
18.335236674738169
 20
253.5164600667178
 30
0.0
 40
1.900314670138888
  1
質量
 41
0.7
 11
18.335236674738169
 21
255.41677473685669
 31
0.0
 73
     3
  0
TEXT
  5
4C
  8
DIMNSIONS
 62
     7
 10
79.999999999999986
 20
22.269490000000012
 30
0.0
 40
2.4432617187500001
  1
(単位：mm)
 41
0.7
 11
79.999999999999986
 21
24.71275171875001
 31
0.0
 73
     3
  0
LINE
  5
4D
  8
DIMNSIONS
  6
CONTINUOUS
 62
     7
 10
35.499999999999758
 20
112.9754586798695
 30
0.0
 11
35.499999999999758
 21
98.0
 31
0.0
  0
LINE
  5
4E
  8
DIMNSIONS
  6
CONTINUOUS
 62
     7
 10
144.50054204900019
 20
112.9754586798695
 30
0.0
 11
144.50054204900019
 21
98.0
 31
0.0
  0
LINE
  5
4F
  8
DIMNSIONS
  6
CONTINUOUS
 62
     7
 10
35.499999999999758
 20
100.0
 30
0.0
 11
144.50054204900019
 21
100.0
 31
0.0
  0
LINE
  5
50
  8
DIMNSIONS
  6
CONTINUOUS
 62
     7
 10
35.499999999999758
 20
100.0
 30
0.0
 11
38.000622558593513
 21
100.6700397951502
 31
0.0
  0
LINE
  5
51
  8
DIMNSIONS
  6
CONTINUOUS
 62
     7
 10
35.499999999999758
 20
100.0
 30
0.0
 11
38.000622558593513
 21
99.329960204849755
 31
0.0
  0
LINE
  5
52
  8
DIMNSIONS
  6
CONTINUOUS
 62
     7
 10
144.50054204900019
 20
100.0
 30
0.0
 11
141.99991949040651
 21
99.329960204849755
 31
0.0
  0
LINE
  5
53
  8
DIMNSIONS
  6
CONTINUOUS
 62
     7
 10
144.50054204900019
 20
100.0
 30
0.0
 11
141.99991949040651
 21
100.6700397951502
 31
0.0
  0
TEXT
  5
54
  8
DIMNSIONS
 62
     7
 10
87.354437691166652
 20
100.9938888888889
 30
0.0
 40
2.7147352430555549
  1
109
 41
0.7
 11
87.354437691166652
 21
103.7086241319444
 31
0.0
 73
     3
  0
LINE
  5
55
  8
DIMNSIONS
  6
CONTINUOUS
 62
     7
 10
38.499939771999998
 20
110.0
 30
0.0
 11
23.0
 21
110.0
 31
0.0
  0
LINE
  5
56
  8
DIMNSIONS
  6
CONTINUOUS
 62
     7
 10
85.346893943637156
 20
141.0
 30
0.0
 11
23.0
 21
141.0
 31
0.0
  0
LINE
  5
57
  8
DIMNSIONS
  6
CONTINUOUS
 62
     7
 10
25.0
 20
110.0
 30
0.0
 11
25.0
 21
141.0
 31
0.0
  0
LINE
  5
58
  8
DIMNSIONS
  6
CONTINUOUS
 62
     7
 10
25.0
 20
110.0
 30
0.0
 11
24.329960204849758
 21
112.5006225585938
 31
0.0
  0
LINE
  5
59
  8
DIMNSIONS
  6
CONTINUOUS
 62
     7
 10
25.0
 20
110.0
 30
0.0
 11
25.670039795150249
 21
112.5006225585938
 31
0.0
  0
LINE
  5
5A
  8
DIMNSIONS
  6
CONTINUOUS
 62
     7
 10
25.0
 20
141.0
 30
0.0
 11
25.670039795150249
 21
138.49937744140621
 31
0.0
  0
LINE
  5
5B
  8
DIMNSIONS
  6
CONTINUOUS
 62
     7
 10
25.0
 20
141.0
 30
0.0
 11
24.329960204849758
 21
138.49937744140621
 31
0.0
  0
TEXT
  5
5C
  8
DIMNSIONS
 62
     7
 10
24.006111111111121
 20
121.9722222222222
 30
0.0
 40
2.7147352430555549
  1
31.0
 50
90.0
 41
0.7
 11
21.291375868055571
 21
121.9722222222222
 31
0.0
 73
     3
  0
LINE
  5
5D
  8
DIMNSIONS
  6
CONTINUOUS
 62
     7
 10
33.499999999999758
 20
160.0
 30
0.0
 11
23.0
 21
160.0
 31
0.0
  0
LINE
  5
5E
  8
DIMNSIONS
  6
CONTINUOUS
 62
     7
 10
33.499999999999758
 20
180.0
 30
0.0
 11
23.0
 21
180.0
 31
0.0
  0
LINE
  5
5F
  8
DIMNSIONS
  6
CONTINUOUS
 62
     7
 10
25.0
 20
160.0
 30
0.0
 11
25.0
 21
180.0
 31
0.0
  0
LINE
  5
60
  8
DIMNSIONS
  6
CONTINUOUS
 62
     7
 10
25.0
 20
160.0
 30
0.0
 11
24.329960204849758
 21
162.5006225585937
 31
0.0
  0
LINE
  5
61
  8
DIMNSIONS
  6
CONTINUOUS
 62
     7
 10
25.0
 20
160.0
 30
0.0
 11
25.670039795150249
 21
162.5006225585937
 31
0.0
  0
LINE
  5
62
  8
DIMNSIONS
  6
CONTINUOUS
 62
     7
 10
25.0
 20
180.0
 30
0.0
 11
25.670039795150249
 21
177.49937744140621
 31
0.0
  0
LINE
  5
63
  8
DIMNSIONS
  6
CONTINUOUS
 62
     7
 10
25.0
 20
180.0
 30
0.0
 11
24.329960204849758
 21
177.49937744140621
 31
0.0
  0
TEXT
  5
64
  8
DIMNSIONS
 62
     7
 10
24.006111103751589
 20
166.4722222222222
 30
0.0
 40
2.7147352835082641
  1
20.0
 50
90.0
 41
0.7
 11
21.291375820243331
 21
166.4722222222222
 31
0.0
 73
     3
  0
TEXT
  5
65
  8
DATA
 62
     7
 10
149.827590762075
 20
20.88148592366905
 30
0.0
 40
2.4432617187500001
  1
BC4099
 41
0.7
 11
149.827590762075
 21
23.324747642419052
 31
0.0
 73
     3
  0
TEXT
  5
66
  8
DATA
 62
     7
 10
149.85632563506249
 20
28.46709461896247
 30
0.0
 40
2.4432617187500001
  1
DPA
 41
0.7
 11
149.85632563506249
 21
30.910356337712471
 31
0.0
 73
     3
  0
TEXT
  5
67
  8
DATA
 62
     7
 10
148.15481622343211
 20
25.103457061064791
 30
0.0
 40
1.6288437109374989
  1
コントラバス用クリップ
 41
0.7
 11
148.15481622343211
 21
26.73230077200229
 31
0.0
 73
     3
  0
TEXT
  5
68
  8
DATA
 62
     7
 10
12.57012263196655
 20
16.626277517656501
 30
0.0
 40
1.900314670138888
  1
※仕様及び外観は予告なく変更されることがあります。
 41
0.7
 11
12.57012263196655
 21
18.526592187795391
 31
0.0
 73
     3
  0
TEXT
  5
69
  8
DATA
 62
     7
 10
12.57012263196655
 20
14.15683307321205
 30
0.0
 40
1.900314670138888
  1
　また、同一商品でも若干の個体差があることがあります。ご了承ください。
 41
0.7
 11
12.57012263196655
 21
16.057147743350939
 31
0.0
 73
     3
  0
ARC
  5
6A
  8
DATA
  6
CONTINUOUS
 62
     7
 10
40.499939771999998
 20
114.99999999951871
 30
0.0
 40
5.000000000000008
 50
101.5369590328157
 51
308.07111297203221
  0
ARC
  5
6B
  8
DATA
  6
CONTINUOUS
 62
     7
 10
40.499939771999998
 20
114.99999999951871
 30
0.0
 40
5.0000000000000071
 50
57.028172811791109
 51
78.463040967184682
  0
ARC
  5
6C
  8
DATA
  6
CONTINUOUS
 62
     7
 10
72.999939772000005
 20
72.60000000184823
 30
0.0
 40
48.423238221138106
 50
107.9080253460894
 51
127.5325206555738
  0
ARC
  5
6D
  8
DATA
  6
CONTINUOUS
 62
     7
 10
90.000000000000057
 20
137.45201679504399
 30
0.0
 40
2.5000000000002212
 50
121.7404353027662
 51
58.259564697239618
  0
ARC
  5
6E
  8
DATA
  6
CONTINUOUS
 62
     7
 10
90.0
 20
137.45201679504419
 30
0.0
 40
4.4999999999999929
 50
131.8103148957785
 51
222.76532749107889
  0
ARC
  5
6F
  8
DATA
  6
CONTINUOUS
 62
     7
 10
90.0
 20
137.45201679504419
 30
0.0
 40
4.4999999999999938
 50
317.23467250892293
 51
48.189685104221716
  0
ARC
  5
70
  8
DATA
  6
CONTINUOUS
 62
     7
 10
87.473445255474431
 20
139.5876434895176
 30
0.0
 40
1.4165982932612819
 50
15.20009812430153
 51
85.644206001966197
  0
ARC
  5
71
  8
DATA
  6
CONTINUOUS
 62
     7
 10
87.57126758040458
 20
140.06241676817689
 30
0.0
 40
0.937784251833764
 50
89.403197288203316
 51
127.5293238008462
  0
ARC
  5
72
  8
DATA
  6
CONTINUOUS
 62
     7
 10
88.189889032391264
 20
140.0026373211017
 30
0.0
 40
0.6520539180456919
 50
319.37910699896742
 51
356.16824457770412
  0
ARC
  5
73
  8
DATA
  6
CONTINUOUS
 62
     7
 10
92.526554744525541
 20
139.5876434895176
 30
0.0
 40
1.4165982932612771
 50
94.355793998033704
 51
164.7999018756984
  0
ARC
  5
74
  8
DATA
  6
CONTINUOUS
 62
     7
 10
92.428732419595406
 20
140.06241676817689
 30
0.0
 40
0.9377842518337631
 50
52.470676199153992
 51
90.596802711796855
  0
ARC
  5
75
  8
DATA
  6
CONTINUOUS
 62
     7
 10
91.810110967608722
 20
140.0026373211017
 30
0.0
 40
0.6520539180456928
 50
183.8317554222958
 51
220.62089300103261
  0
ARC
  5
76
  8
DATA
  6
CONTINUOUS
 62
     7
 10
95.392172074702344
 20
132.70527919707021
 30
0.0
 40
2.6874372523137691
 50
141.00023870043199
 51
271.62141448176692
  0
ARC
  5
77
  8
DATA
  6
CONTINUOUS
 62
     7
 10
84.607827925297613
 20
132.70527919707021
 30
0.0
 40
2.6874372523137668
 50
268.37858551823422
 51
38.999761299567922
  0
LINE
  5
78
  8
DATA
  6
CONTINUOUS
 62
     7
 10
43.221072711453232
 20
119.1946913500024
 30
0.0
 11
44.869574523404253
 21
118.2672762633631
 31
0.0
  0
LINE
  5
79
  8
DATA
  6
CONTINUOUS
 62
     7
 10
44.869574523404253
 20
118.2672762633631
 30
0.0
 11
45.470655585343849
 21
117.92911973778649
 31
0.0
  0
ARC
  5
7A
  8
DATA
  6
CONTINUOUS
 62
     7
 10
46.451284745900693
 20
119.6722107995115
 30
0.0
 40
2.0
 50
240.6387398804838
 51
292.52818723366818
  0
LINE
  5
7B
  8
DATA
  6
CONTINUOUS
 62
     7
 10
39.499939771999998
 20
119.89897948508499
 30
0.0
 11
39.499939771999998
 21
119.0
 31
0.0
  0
LINE
  5
7C
  8
DATA
  6
CONTINUOUS
 62
     7
 10
40.499939771999991
 20
114.99999999951871
 30
0.0
 11
39.499939771999998
 21
119.0
 31
0.0
  0
LINE
  5
7D
  8
DATA
  6
CONTINUOUS
 62
     7
 10
41.499939771999998
 20
119.89897948508499
 30
0.0
 11
41.499939771999998
 21
119.0
 31
0.0
  0
LINE
  5
7E
  8
DATA
  6
CONTINUOUS
 62
     7
 10
40.499939771999991
 20
114.99999999951871
 30
0.0
 11
41.499939771999998
 21
119.0
 31
0.0
  0
ARC
  5
7F
  8
DATA
  6
CONTINUOUS
 62
     7
 10
139.50060227700001
 20
114.99999999951871
 30
0.0
 40
5.0000000000000071
 50
231.9288870279679
 51
78.463040967184313
  0
ARC
  5
80
  8
DATA
  6
CONTINUOUS
 62
     7
 10
139.50060227700001
 20
114.99999999951871
 30
0.0
 40
5.000000000000008
 50
101.5369590328153
 51
122.97182718820881
  0
LINE
  5
81
  8
DATA
  6
CONTINUOUS
 62
     7
 10
136.77946933754669
 20
119.1946913500024
 30
0.0
 11
135.13096752559571
 21
118.2672762633631
 31
0.0
  0
LINE
  5
82
  8
DATA
  6
CONTINUOUS
 62
     7
 10
135.13096752559571
 20
118.2672762633631
 30
0.0
 11
134.52988646365611
 21
117.92911973778649
 31
0.0
  0
LINE
  5
83
  8
DATA
  6
CONTINUOUS
 62
     7
 10
140.50060227700001
 20
119.89897948508499
 30
0.0
 11
140.50060227700001
 21
119.0
 31
0.0
  0
LINE
  5
84
  8
DATA
  6
CONTINUOUS
 62
     7
 10
139.50060227700001
 20
114.99999999951871
 30
0.0
 11
140.50060227700001
 21
119.0
 31
0.0
  0
LINE
  5
85
  8
DATA
  6
CONTINUOUS
 62
     7
 10
138.50060227700001
 20
119.89897948508499
 30
0.0
 11
138.50060227700001
 21
119.0
 31
0.0
  0
LINE
  5
86
  8
DATA
  6
CONTINUOUS
 62
     7
 10
139.50060227700001
 20
114.99999999951871
 30
0.0
 11
138.50060227700001
 21
119.0
 31
0.0
  0
ARC
  5
87
  8
DATA
  6
CONTINUOUS
 62
     7
 10
3.9014989760726442
 20
207.81898109322179
 30
0.0
 40
99.820486070550515
 50
296.26607716845962
 51
312.42761348975893
  0
LINE
  5
88
  8
DATA
  6
CONTINUOUS
 62
     7
 10
47.217560541588803
 20
117.8248284879846
 30
0.0
 11
48.076090308424298
 21
118.3050999351539
 31
0.0
  0
ARC
  5
89
  8
DATA
  6
CONTINUOUS
 62
     7
 10
72.595525349693361
 20
132.6621974724236
 30
0.0
 40
2.0
 50
46.893611065274008
 51
132.42761348975881
  0
ARC
  5
8A
  8
DATA
  6
CONTINUOUS
 62
     7
 10
84.353796310648747
 20
145.224551749082
 30
0.0
 40
15.20667547678875
 50
226.893611065274
 51
270.67064653056229
  0
LINE
  5
8B
  8
DATA
  6
CONTINUOUS
 62
     7
 10
135.13042547659569
 20
118.2672762633631
 30
0.0
 11
134.52934441465609
 21
117.92911973778649
 31
0.0
  0
ARC
  5
8C
  8
DATA
  6
CONTINUOUS
 62
     7
 10
133.54871525409931
 20
119.6722107995115
 30
0.0
 40
2.0
 50
247.47181276633171
 51
299.36126011951632
  0
ARC
  5
8D
  8
DATA
  6
CONTINUOUS
 62
     7
 10
176.09850102392741
 20
207.81898109322179
 30
0.0
 40
99.820486070550515
 50
227.5723865102411
 51
243.73392283154041
  0
LINE
  5
8E
  8
DATA
  6
CONTINUOUS
 62
     7
 10
132.7824394584112
 20
117.8248284879846
 30
0.0
 11
131.92390969157569
 21
118.3050999351539
 31
0.0
  0
ARC
  5
8F
  8
DATA
  6
CONTINUOUS
 62
     7
 10
107.4044746503066
 20
132.6621974724236
 30
0.0
 40
2.0
 50
47.572386510241117
 51
133.106388934726
  0
ARC
  5
90
  8
DATA
  6
CONTINUOUS
 62
     7
 10
95.646203689351225
 20
145.224551749082
 30
0.0
 40
15.20667547678875
 50
269.32935346943759
 51
313.106388934726
  0
LINE
  5
91
  8
DATA
  6
CONTINUOUS
 62
     7
 10
85.973624048664206
 20
125.0316822465126
 30
0.0
 11
94.282815791813988
 21
125.0178750153011
 31
0.0
  0
ARC
  5
92
  8
DATA
  6
CONTINUOUS
 62
     7
 10
90.17407856287096
 20
44.62889299402169
 30
0.0
 40
80.512435919591965
 50
92.910127287328123
 51
109.58757633809221
  0
LINE
  5
93
  8
DATA
  6
CONTINUOUS
 62
     7
 10
58.110282929665061
 20
118.6771973877418
 30
0.0
 11
63.18250037751929
 21
120.4820935917004
 31
0.0
  0
ARC
  5
94
  8
DATA
  6
CONTINUOUS
 62
     7
 10
107.000060228
 20
72.60000000184823
 30
0.0
 40
48.423238221138106
 50
52.467479344426138
 51
72.091974653910583
  0
ARC
  5
95
  8
DATA
  6
CONTINUOUS
 62
     7
 10
89.825921437129054
 20
44.62889299402169
 30
0.0
 40
80.512435919591965
 50
70.412423661907809
 51
87.089872712671905
  0
LINE
  5
96
  8
DATA
  6
CONTINUOUS
 62
     7
 10
121.8897170703349
 20
118.6771973877418
 30
0.0
 11
116.8174996224807
 21
120.4820935917004
 31
0.0
  0
TEXT
  5
97
  8
DATA
 62
     7
 10
86.372813528888088
 20
127.06308372464881
 30
0.0
 40
2.7147352835082641
  1
DPA
 41
0.7
 11
86.372813528888088
 21
129.77781900815711
 31
0.0
 73
     3
  0
LINE
  5
98
  8
DATA
  6
CONTINUOUS
 62
     7
 10
155.0
 20
141.0
 30
0.0
 11
175.0
 21
141.0
 31
0.0
  0
LINE
  5
99
  8
DATA
  6
CONTINUOUS
 62
     7
 10
155.0
 20
110.0
 30
0.0
 11
155.0
 21
141.0
 31
0.0
  0
LINE
  5
9A
  8
DATA
  6
CONTINUOUS
 62
     7
 10
175.0
 20
110.0
 30
0.0
 11
175.0
 21
141.0
 31
0.0
  0
LINE
  5
9B
  8
DATA
  6
CONTINUOUS
 62
     7
 10
155.0
 20
110.0
 30
0.0
 11
175.0
 21
110.0
 31
0.0
  0
LINE
  5
9C
  8
DATA
  6
CONTINUOUS
 62
     7
 10
155.0
 20
119.89897948508499
 30
0.0
 11
175.0
 21
119.89897948508499
 31
0.0
  0
LINE
  5
9D
  8
DATA
  6
CONTINUOUS
 62
     7
 10
155.0
 20
134.66216238546539
 30
0.0
 11
175.0
 21
134.66216238546539
 31
0.0
  0
LINE
  5
9E
  8
DATA
  6
CONTINUOUS
 62
     7
 10
35.499999999999758
 20
70.0
 30
0.0
 11
144.50054204900019
 21
70.0
 31
0.0
  0
LINE
  5
9F
  8
DATA
  6
CONTINUOUS
 62
     7
 10
35.499999999999758
 20
90.0
 30
0.0
 11
144.50054204900019
 21
90.0
 31
0.0
  0
LINE
  5
A0
  8
DATA
  6
CONTINUOUS
 62
     7
 10
35.499999999999758
 20
90.0
 30
0.0
 11
35.499999999999758
 21
70.0
 31
0.0
  0
LINE
  5
A1
  8
DATA
  6
CONTINUOUS
 62
     7
 10
144.50054204900019
 20
90.0
 30
0.0
 11
144.50054204900019
 21
70.0
 31
0.0
  0
LINE
  5
A2
  8
DATA
  6
CONTINUOUS
 62
     7
 10
35.499999999999758
 20
160.0
 30
0.0
 11
35.499999999999758
 21
180.0
 31
0.0
  0
LINE
  5
A3
  8
DATA
  6
CONTINUOUS
 62
     7
 10
39.499939771999991
 20
160.0
 30
0.0
 11
39.499939771999991
 21
180.0
 31
0.0
  0
LINE
  5
A4
  8
DATA
  6
CONTINUOUS
 62
     7
 10
41.499939771999998
 20
160.0
 30
0.0
 11
41.499939771999998
 21
180.0
 31
0.0
  0
LINE
  5
A5
  8
DATA
  6
CONTINUOUS
 62
     7
 10
35.499999999999758
 20
160.0
 30
0.0
 11
144.50054204900019
 21
160.0
 31
0.0
  0
LINE
  5
A6
  8
DATA
  6
CONTINUOUS
 62
     7
 10
35.499999999999758
 20
180.0
 30
0.0
 11
144.50054204900019
 21
180.0
 31
0.0
  0
LINE
  5
A7
  8
DATA
  6
CONTINUOUS
 62
     7
 10
144.50054204900019
 20
160.0
 30
0.0
 11
144.50054204900019
 21
180.0
 31
0.0
  0
LINE
  5
A8
  8
DATA
  6
CONTINUOUS
 62
     7
 10
88.840485338425523
 20
160.0
 30
0.0
 11
88.840485338425523
 21
180.0
 31
0.0
  0
LINE
  5
A9
  8
DATA
  6
CONTINUOUS
 62
     7
 10
91.159514661574477
 20
160.0
 30
0.0
 11
91.159514661574477
 21
180.0
 31
0.0
  0
LINE
  5
AA
  8
DATA
  6
CONTINUOUS
 62
     7
 10
85.500285269777237
 20
160.0
 30
0.0
 11
85.500285269777237
 21
180.0
 31
0.0
  0
LINE
  5
AB
  8
DATA
  6
CONTINUOUS
 62
     7
 10
94.499714730222706
 20
160.0
 30
0.0
 11
94.499714730222706
 21
180.0
 31
0.0
  0
LINE
  5
AC
  8
DATA
  6
CONTINUOUS
 62
     7
 10
140.500060228
 20
160.0
 30
0.0
 11
140.500060228
 21
180.0
 31
0.0
  0
LINE
  5
AD
  8
DATA
  6
CONTINUOUS
 62
     7
 10
138.500060228
 20
160.0
 30
0.0
 11
138.500060228
 21
180.0
 31
0.0
  0
LINE
  5
AE
  8
DATA
  6
CONTINUOUS
 62
     7
 10
46.451284745900693
 20
160.0
 30
0.0
 11
46.451284745900693
 21
180.0
 31
0.0
  0
LINE
  5
AF
  8
DATA
  6
CONTINUOUS
 62
     7
 10
72.595525349693361
 20
160.0
 30
0.0
 11
72.595525349693361
 21
180.0
 31
0.0
  0
LINE
  5
B0
  8
DATA
  6
CONTINUOUS
 62
     7
 10
107.4044746503066
 20
160.0
 30
0.0
 11
107.4044746503066
 21
180.0
 31
0.0
  0
LINE
  5
B1
  8
DATA
  6
CONTINUOUS
 62
     7
 10
133.54871525409931
 20
160.0
 30
0.0
 11
133.54871525409931
 21
180.0
 31
0.0
  0
ENDSEC
  0
EOF
