  0
SECTION
  2
HEADER
  9
$ACADVER
  1
AC1009
  9
$INSBASE
 10
0.0
 20
0.0
 30
0.0
  9
$EXTMIN
 10
-135.0082391174605
 20
-204.63561431181751
 30
-0.0015258207003583
  9
$EXTMAX
 10
135.00824037474609
 20
196.7790502507647
 30
0.0000000349246037
  9
$LIMMIN
 10
0.0
 20
0.0
  9
$LIMMAX
 10
0.0
 20
0.0
  9
$ORTHOMODE
 70
     0
  9
$REGENMODE
 70
     1
  9
$FILLMODE
 70
     1
  9
$QTEXTMODE
 70
     0
  9
$MIRRTEXT
 70
     1
  9
$DRAGMODE
 70
     2
  9
$LTSCALE
 40
7.6199999999999983
  9
$OSMODE
 70
   231
  9
$ATTMODE
 70
     1
  9
$TEXTSIZE
 40
0.0
  9
$TRACEWID
 40
1.0
  9
$TEXTSTYLE
  7
STANDARD
  9
$CLAYER
  8
DATA
  9
$CELTYPE
  6
BYLAYER
  9
$CECOLOR
 62
   256
  9
$DIMSCALE
 40
1.0
  9
$DIMASZ
 40
0.18
  9
$DIMEXO
 40
0.0625
  9
$DIMDLI
 40
0.38
  9
$DIMRND
 40
0.0
  9
$DIMDLE
 40
0.0
  9
$DIMEXE
 40
0.18
  9
$DIMTP
 40
0.0
  9
$DIMTM
 40
0.0
  9
$DIMTXT
 40
0.18
  9
$DIMCEN
 40
0.09
  9
$DIMTSZ
 40
0.0
  9
$DIMTOL
 70
     0
  9
$DIMLIM
 70
     0
  9
$DIMTIH
 70
     1
  9
$DIMTOH
 70
     1
  9
$DIMSE1
 70
     0
  9
$DIMSE2
 70
     0
  9
$DIMTAD
 70
     0
  9
$DIMZIN
 70
     0
  9
$DIMBLK
  1

  9
$DIMASO
 70
     1
  9
$DIMSHO
 70
     1
  9
$DIMPOST
  1

  9
$DIMAPOST
  1

  9
$DIMALT
 70
     0
  9
$DIMALTD
 70
     2
  9
$DIMALTF
 40
25.399999999999999
  9
$DIMLFAC
 40
1.0
  9
$DIMTOFL
 70
     0
  9
$DIMTVP
 40
0.0
  9
$DIMTIX
 70
     0
  9
$DIMSOXD
 70
     0
  9
$DIMSAH
 70
     0
  9
$DIMBLK1
  1

  9
$DIMBLK2
  1

  9
$DIMSTYLE
  2
STANDARD
  9
$DIMCLRD
 70
     0
  9
$DIMCLRE
 70
     0
  9
$DIMCLRT
 70
     0
  9
$DIMTFAC
 40
1.0
  9
$DIMGAP
 40
0.09
  9
$LUNITS
 70
     2
  9
$LUPREC
 70
     4
  9
$SKETCHINC
 40
0.1
  9
$FILLETRAD
 40
0.0
  9
$AUNITS
 70
     0
  9
$AUPREC
 70
     0
  9
$MENU
  1
acad
  9
$ELEVATION
 40
0.0
  9
$PELEVATION
 40
0.0
  9
$THICKNESS
 40
0.0
  9
$LIMCHECK
 70
     0
  9
$BLIPMODE
 70
     0
  9
$CHAMFERA
 40
0.0
  9
$CHAMFERB
 40
0.0
  9
$SKPOLY
 70
     0
  9
$TDCREATE
 40
2456597.4475925928
  9
$TDUPDATE
 40
2456597.4622040512
  9
$TDINDWG
 40
0.0002788426
  9
$TDUSRTIMER
 40
0.0002788079
  9
$USRTIMER
 70
     1
  9
$ANGBASE
 50
0.0
  9
$ANGDIR
 70
     0
  9
$PDMODE
 70
     1
  9
$PDSIZE
 40
-2.0
  9
$PLINEWID
 40
0.0
  9
$COORDS
 70
     2
  9
$SPLFRAME
 70
     0
  9
$SPLINETYPE
 70
     6
  9
$SPLINESEGS
 70
     8
  9
$ATTDIA
 70
     0
  9
$ATTREQ
 70
     1
  9
$HANDLING
 70
     1
  9
$HANDSEED
  5
CCE
  9
$SURFTAB1
 70
     6
  9
$SURFTAB2
 70
     6
  9
$SURFTYPE
 70
     6
  9
$SURFU
 70
     6
  9
$SURFV
 70
     6
  9
$UCSNAME
  2

  9
$UCSORG
 10
0.0
 20
0.0
 30
0.0
  9
$UCSXDIR
 10
1.0
 20
0.0
 30
0.0
  9
$UCSYDIR
 10
0.0
 20
1.0
 30
0.0
  9
$PUCSNAME
  2

  9
$PUCSORG
 10
0.0
 20
0.0
 30
0.0
  9
$PUCSXDIR
 10
1.0
 20
0.0
 30
0.0
  9
$PUCSYDIR
 10
0.0
 20
1.0
 30
0.0
  9
$USERI1
 70
     0
  9
$USERI2
 70
     0
  9
$USERI3
 70
     0
  9
$USERI4
 70
     0
  9
$USERI5
 70
     0
  9
$USERR1
 40
0.0
  9
$USERR2
 40
0.0
  9
$USERR3
 40
0.0
  9
$USERR4
 40
0.0
  9
$USERR5
 40
0.0
  9
$WORLDVIEW
 70
     1
  9
$SHADEDGE
 70
     3
  9
$SHADEDIF
 70
    70
  9
$TILEMODE
 70
     1
  9
$MAXACTVP
 70
    64
  9
$PLIMCHECK
 70
     0
  9
$PEXTMIN
 10
1.0000000000000000E+020
 20
1.0000000000000000E+020
 30
1.0000000000000000E+020
  9
$PEXTMAX
 10
-1.0000000000000000E+020
 20
-1.0000000000000000E+020
 30
-1.0000000000000000E+020
  9
$PLIMMIN
 10
0.0
 20
0.0
  9
$PLIMMAX
 10
12.0
 20
9.0
  9
$UNITMODE
 70
     0
  9
$VISRETAIN
 70
     0
  9
$PLINEGEN
 70
     1
  9
$PSLTSCALE
 70
     0
  0
ENDSEC
  0
SECTION
  2
TABLES
  0
TABLE
  2
VPORT
 70
     1
  0
VPORT
  2
*ACTIVE
 70
     0
 10
0.0
 20
0.0
 11
1.0
 21
1.0
 12
0.0000006286428516
 22
-3.5336469621441888
 13
0.0
 23
0.0
 14
1.0
 24
1.0
 15
0.0
 25
0.0
 16
0.0
 26
0.0
 36
1.0
 17
0.0
 27
0.0
 37
0.0
 40
403.77992509058799
 41
2.1787122207621552
 42
50.0
 43
0.0
 44
0.0
 50
0.0
 51
0.0
 71
     0
 72
  2000
 73
     1
 74
     1
 75
     0
 76
     0
 77
     0
 78
     0
  0
ENDTAB
  0
TABLE
  2
LTYPE
 70
     3
  0
LTYPE
  2
CONTINUOUS
 70
     0
  3
Solid line
 72
    65
 73
     0
 40
0.0
  0
LTYPE
  2
STYLE_02
 70
     0
  3

 72
    65
 73
     2
 40
0.4165600000000001
 49
0.20828
 49
-0.20828
  0
ENDTAB
  0
TABLE
  2
LAYER
 70
     6
  0
LAYER
  2
0
 70
     0
 62
     7
  6
CONTINUOUS
  0
LAYER
  2
DATA
 70
     0
 62
     7
  6
CONTINUOUS
  0
LAYER
  2
HIBINO-BASE
 70
     0
 62
     7
  6
CONTINUOUS
  0
LAYER
  2
SPEC
 70
     0
 62
     7
  6
CONTINUOUS
  0
LAYER
  2
DIMNSIONS
 70
     0
 62
     7
  6
CONTINUOUS
  0
ENDTAB
  0
TABLE
  2
STYLE
 70
     3
  0
STYLE
  2
STANDARD
 70
     0
 40
0.0
 41
1.0
 50
0.0
 71
     0
 42
0.0
  3
txt
  4
BIGFONT.SHX
  0
ENDTAB
  0
TABLE
  2
VIEW
 70
     0
  0
ENDTAB
  0
TABLE
  2
UCS
 70
     0
  0
ENDTAB
  0
TABLE
  2
APPID
 70
     4
  0
APPID
  2
ACAD
 70
     0
  0
APPID
  2
ACADANNOTATIVE
 70
     0
  0
APPID
  2
ACAD_NAV_VCDISPLAY
 70
     0
  0
APPID
  2
ACAD_MLEADERVER
 70
     0
  0
ENDTAB
  0
TABLE
  2
DIMSTYLE
 70
     2
  0
DIMSTYLE
  2
STANDARD
 70
     0
  3

  4

  5

  6

  7

 40
1.0
 41
0.18
 42
0.0625
 43
0.38
 44
0.18
 45
0.0
 46
0.0
 47
0.0
 48
0.0
140
0.18
141
0.09
142
0.0
143
25.399999999999999
144
1.0
145
0.0
146
1.0
147
0.09
 71
     0
 72
     0
 73
     1
 74
     1
 75
     0
 76
     0
 77
     0
 78
     0
170
     0
171
     2
172
     0
173
     0
174
     0
175
     0
176
     0
177
     0
178
     0
  0
ENDTAB
  0
ENDSEC
  0
SECTION
  2
BLOCKS
  0
BLOCK
  8
0
  2
$MODEL_SPACE
 70
     0
 10
0.0
 20
0.0
 30
0.0
  3
$MODEL_SPACE
  1

  0
ENDBLK
  5
78D
  8
0
  0
BLOCK
 67
     1
  8
0
  2
$PAPER_SPACE
 70
     0
 10
0.0
 20
0.0
 30
0.0
  3
$PAPER_SPACE
  1

  0
ENDBLK
  5
789
 67
     1
  8
0
  0
ENDSEC
  0
SECTION
  2
ENTITIES
  0
LINE
  5
25
  8
HIBINO-BASE
  6
CONTINUOUS
 62
     7
 10
-134.99999999999989
 20
196.7668239474329
 30
0.0
 11
134.99999999999989
 21
196.7668239474329
 31
0.0
  0
LINE
  5
26
  8
HIBINO-BASE
  6
CONTINUOUS
 62
     7
 10
134.99999999999989
 20
-193.23317605256699
 30
0.0
 11
-134.99999999999989
 21
-193.23317605256699
 31
0.0
  0
LINE
  5
27
  8
HIBINO-BASE
  6
CONTINUOUS
 62
     7
 10
-134.99999999999989
 20
-193.23317605256699
 30
0.0
 11
-134.99999999999989
 21
196.7668239474329
 31
0.0
  0
LINE
  5
28
  8
HIBINO-BASE
  6
CONTINUOUS
 62
     7
 10
134.99999999999989
 20
196.7668239474329
 30
0.0
 11
134.99999999999989
 21
-193.23317605256699
 31
0.0
  0
LINE
  5
29
  8
HIBINO-BASE
  6
CONTINUOUS
 62
     7
 10
0.0
 20
-159.48317605256699
 30
0.0
 11
134.99999999999989
 21
-159.48317605256699
 31
0.0
  0
LINE
  5
2A
  8
HIBINO-BASE
  6
CONTINUOUS
 62
     7
 10
0.0
 20
-193.23317605256699
 30
0.0
 11
0.0
 21
-159.48317605256699
 31
0.0
  0
TEXT
  5
2B
  8
HIBINO-BASE
 62
     7
 10
1.349999999999999
 20
-163.24621605256701
 30
0.0
 40
2.4432617187500001
  1
NOTE
 41
0.7
 11
1.3500000000000001
 21
-160.80295433381701
 31
0.0
 73
     3
  0
LINE
  5
2C
  8
HIBINO-BASE
  6
CONTINUOUS
 62
     7
 10
52.5
 20
-193.23317605256699
 30
0.0
 11
52.5
 21
-159.48317605256699
 31
0.0
  0
TEXT
  5
2D
  8
HIBINO-BASE
 62
     7
 10
53.850000000000001
 20
-163.24621605256701
 30
0.0
 40
2.4432617187500001
  1
TITLE
 41
0.7
 11
53.850000000000001
 21
-160.80295433381701
 31
0.0
 73
     3
  0
LINE
  5
2E
  8
HIBINO-BASE
  6
CONTINUOUS
 62
     7
 10
0.0
 20
-178.23317605256699
 30
0.0
 11
134.99999999999989
 21
-178.23317605256699
 31
0.0
  0
TEXT
  5
2F
  8
HIBINO-BASE
 62
     7
 10
72.59999999999998
 20
-181.91173605256699
 30
0.0
 40
2.4432617187500001
  1
DRAWN
 41
0.7
 11
72.59999999999998
 21
-179.468474333817
 31
0.0
 73
     3
  0
TEXT
  5
30
  8
HIBINO-BASE
 62
     7
 10
35.100000000000001
 20
-181.91173605256699
 30
0.0
 40
2.4432617187500001
  1
DATE
 41
0.7
 11
35.100000000000001
 21
-179.468474333817
 31
0.0
 73
     3
  0
TEXT
  5
31
  8
HIBINO-BASE
 62
     7
 10
20.100000000000001
 20
-181.91173605256699
 30
0.0
 40
2.4432617187500001
  1
SCALE
 41
0.7
 11
20.100000000000001
 21
-179.468474333817
 31
0.0
 73
     3
  0
TEXT
  5
32
  8
HIBINO-BASE
 62
     7
 10
53.850000000000001
 20
-181.91173605256699
 30
0.0
 40
2.4432617187500001
  1
DESIGN
 41
0.7
 11
53.850000000000001
 21
-179.468474333817
 31
0.0
 73
     3
  0
TEXT
  5
33
  8
HIBINO-BASE
 62
     7
 10
110.09999999999999
 20
-181.91173605256699
 30
0.0
 40
2.4432617187500001
  1
DRAWING NO.
 41
0.7
 11
110.09999999999999
 21
-179.468474333817
 31
0.0
 73
     3
  0
TEXT
  5
34
  8
HIBINO-BASE
 62
     7
 10
91.349999999999994
 20
-181.91173605256699
 30
0.0
 40
2.4432617187500001
  1
CHECK
 41
0.7
 11
91.349999999999994
 21
-179.468474333817
 31
0.0
 73
     3
  0
LINE
  5
35
  8
HIBINO-BASE
  6
CONTINUOUS
 62
     7
 10
21.5625
 20
-191.35817605256699
 30
0.0
 11
27.1875
 21
-185.73317605256699
 31
0.0
  0
TEXT
  5
36
  8
HIBINO-BASE
 62
     7
 10
20.625
 20
-187.396591052567
 30
0.0
 40
2.4432617187500001
  1
1
 41
0.7
 11
20.625
 21
-184.95332933381701
 31
0.0
 73
     3
  0
LINE
  5
37
  8
HIBINO-BASE
  6
CONTINUOUS
 62
     7
 10
18.75
 20
-193.23317605256699
 30
0.0
 11
18.75
 21
-178.23317605256699
 31
0.0
  0
LINE
  5
38
  8
HIBINO-BASE
  6
CONTINUOUS
 62
     7
 10
33.75
 20
-193.23317605256699
 30
0.0
 11
33.75
 21
-178.23317605256699
 31
0.0
  0
LINE
  5
39
  8
HIBINO-BASE
  6
CONTINUOUS
 62
     7
 10
71.249999999999986
 20
-178.23317605256699
 30
0.0
 11
71.249999999999986
 21
-193.23317605256699
 31
0.0
  0
LINE
  5
3A
  8
HIBINO-BASE
  6
CONTINUOUS
 62
     7
 10
108.75
 20
-178.23317605256699
 30
0.0
 11
108.75
 21
-193.23317605256699
 31
0.0
  0
LINE
  5
3B
  8
HIBINO-BASE
  6
CONTINUOUS
 62
     7
 10
89.999999999999986
 20
-193.23317605256699
 30
0.0
 11
89.999999999999986
 21
-178.23317605256699
 31
0.0
  0
TEXT
  5
3C
  8
HIBINO-BASE
 62
     7
 10
35.03481
 20
-188.93770605256699
 30
0.0
 40
2.4432617187500001
  1
'13.10.
 41
0.7
 11
35.03481
 21
-186.494444333817
 31
0.0
 73
     3
  0
TEXT
  5
3D
  8
HIBINO-BASE
 62
     7
 10
26.25
 20
-190.209091052567
 30
0.0
 40
2.4432617187500001
  1
1.5
 41
0.7
 11
26.25
 21
-187.76582933381701
 31
0.0
 73
     3
  0
TEXT
  5
3E
  8
HIBINO-BASE
 62
     7
 10
73.508715016551932
 20
-188.93770605256699
 30
0.0
 40
2.4432617187500001
  1
Ootake
 41
0.7
 11
73.508715016551932
 21
-186.494444333817
 31
0.0
 73
     3
  0
TEXT
  5
3F
  8
HIBINO-BASE
 62
     7
 10
5.8250000000000233
 20
-190.26917605256699
 30
0.0
 40
4.8865234374999993
  1
A4
 41
0.7
 11
5.8250000000000233
 21
-185.382652615067
 31
0.0
 73
     3
  0
TEXT
  5
40
  8
HIBINO-BASE
 62
     7
 10
1.437499999999998
 20
-182.16235855256701
 30
0.0
 40
2.4432617187500001
  1
PAPER SIZE
 41
0.7
 11
1.437499999999998
 21
-179.71909683381699
 31
0.0
 73
     3
  0
TEXT
  5
41
  8
HIBINO-BASE
 62
     7
 10
-130.86054711466471
 20
-202.8710364038314
 30
0.0
 40
5.293733723958332
  1
Hibino-Intersound Corporation
 41
0.7
 11
-130.86054711466471
 21
-197.57730267987299
 31
0.0
 73
     3
  0
TEXT
  5
42
  8
HIBINO-BASE
 62
     7
 10
30.270914520320851
 20
-202.34440402389731
 30
0.0
 40
5.293733723958332
  1
ヒビノインターサウンド株式会社
 41
0.7
 11
30.270914520320851
 21
-197.0506702999389
 31
0.0
 73
     3
  0
LINE
  5
43
  8
SPEC
  6
CONTINUOUS
 62
     7
 10
-123.7499999999999
 20
181.7668239474329
 30
0.0
 11
97.5
 21
181.7668239474329
 31
0.0
  0
LINE
  5
44
  8
SPEC
  6
CONTINUOUS
 62
     7
 10
-123.7499999999999
 20
176.1418239474329
 30
0.0
 11
97.5
 21
176.1418239474329
 31
0.0
  0
LINE
  5
45
  8
SPEC
  6
CONTINUOUS
 62
     7
 10
-123.7499999999999
 20
170.5168239474329
 30
0.0
 11
97.5
 21
170.5168239474329
 31
0.0
  0
LINE
  5
46
  8
SPEC
  6
CONTINUOUS
 62
     7
 10
-123.7499999999999
 20
181.7668239474329
 30
0.0
 11
-123.7499999999999
 21
170.5168239474329
 31
0.0
  0
TEXT
  5
47
  8
SPEC
 62
     7
 10
-121.8749999999999
 20
183.85672894743291
 30
0.0
 40
3.664892578124999
  1
仕様
 41
0.7
 11
-121.8749999999999
 21
187.521621525558
 31
0.0
 73
     3
  0
LINE
  5
48
  8
SPEC
  6
CONTINUOUS
 62
     7
 10
-74.999999999999986
 20
181.7668239474329
 30
0.0
 11
-74.999999999999986
 21
170.5168239474329
 31
0.0
  0
LINE
  5
49
  8
SPEC
  6
CONTINUOUS
 62
     7
 10
97.5
 20
181.7668239474329
 30
0.0
 11
97.5
 21
170.5168239474329
 31
0.0
  0
TEXT
  5
4A
  8
SPEC
 62
     7
 10
-122.504002007601
 20
177.5321819376372
 30
0.0
 40
2.8504720052083332
  1
寸法(W\U+00D7H\U+00D7D)
 41
0.7
 11
-122.504002007601
 21
180.38265394284551
 31
0.0
 73
     3
  0
TEXT
  5
4B
  8
SPEC
 62
     7
 10
-73.602622753164823
 20
177.44226641639489
 30
0.0
 40
2.8504720052083332
  1
43.0\U+00D7135\U+00D733.2mm(除突起部) 
 41
0.7
 11
-73.602622753164823
 21
180.29273842160319
 31
0.0
 73
     3
  0
TEXT
  5
4C
  8
SPEC
 62
     7
 10
-73.83891764516666
 20
171.9926449788739
 30
0.0
 40
2.8504720052083332
  1
12g
 41
0.7
 11
-73.83891764516666
 21
174.8431169840822
 31
0.0
 73
     3
  0
TEXT
  5
4D
  8
SPEC
 62
     7
 10
-122.52882441564449
 20
172.04573798975059
 30
0.0
 40
2.8504720052083332
  1
質量
 41
0.7
 11
-122.52882441564449
 21
174.89620999495889
 31
0.0
 73
     3
  0
TEXT
  5
4E
  8
DIMNSIONS
 62
     7
 10
-30.0
 20
-174.82894105256699
 30
0.0
 40
3.664892578124999
  1
(単位：mm)
 41
0.7
 11
-30.0
 21
-171.16404847444201
 31
0.0
 73
     3
  0
LINE
  5
4F
  8
DIMNSIONS
  6
CONTINUOUS
 62
     7
 10
-52.999999999999993
 20
-60.0
 30
0.0
 11
-82.999999999999986
 21
-60.0
 31
0.0
  0
LINE
  5
50
  8
DIMNSIONS
  6
CONTINUOUS
 62
     7
 10
-56.499999999999993
 20
75.0
 30
0.0
 11
-82.999999999999986
 21
75.0
 31
0.0
  0
LINE
  5
51
  8
DIMNSIONS
  6
CONTINUOUS
 62
     7
 10
-79.999999999999986
 20
-60.0
 30
0.0
 11
-79.999999999999986
 21
75.0
 31
0.0
  0
LINE
  5
52
  8
DIMNSIONS
  6
CONTINUOUS
 62
     7
 10
-79.999999999999986
 20
-60.0
 30
0.0
 11
-81.005059692725339
 21
-56.249066162109358
 31
0.0
  0
LINE
  5
53
  8
DIMNSIONS
  6
CONTINUOUS
 62
     7
 10
-79.999999999999986
 20
-60.0
 30
0.0
 11
-78.994940307274632
 21
-56.249066162109358
 31
0.0
  0
LINE
  5
54
  8
DIMNSIONS
  6
CONTINUOUS
 62
     7
 10
-79.999999999999986
 20
75.0
 30
0.0
 11
-78.994940307274632
 21
71.249066162109372
 31
0.0
  0
LINE
  5
55
  8
DIMNSIONS
  6
CONTINUOUS
 62
     7
 10
-79.999999999999986
 20
75.0
 30
0.0
 11
-81.005059692725339
 21
71.249066162109372
 31
0.0
  0
TEXT
  5
56
  8
DIMNSIONS
 62
     7
 10
-81.490833377490432
 20
3.5312497476736708
 30
0.0
 40
4.0721031072996077
  1
135
 50
90.0
 41
0.7
 11
-85.562936484790029
 21
3.5312497476736722
 31
0.0
 73
     3
  0
LINE
  5
57
  8
DIMNSIONS
  6
CONTINUOUS
 62
     7
 10
-55.999999999999993
 20
-60.0
 30
0.0
 11
-92.999999999999986
 21
-60.0
 31
0.0
  0
LINE
  5
58
  8
DIMNSIONS
  6
CONTINUOUS
 62
     7
 10
-70.347784488704477
 20
85.999999999962654
 30
0.0
 11
-92.999999999999986
 21
85.999999999962654
 31
0.0
  0
LINE
  5
59
  8
DIMNSIONS
  6
CONTINUOUS
 62
     7
 10
-89.999999999999986
 20
-60.0
 30
0.0
 11
-89.999999999999986
 21
85.999999999962654
 31
0.0
  0
LINE
  5
5A
  8
DIMNSIONS
  6
CONTINUOUS
 62
     7
 10
-89.999999999999986
 20
-60.0
 30
0.0
 11
-91.005059692725354
 21
-56.249066162109358
 31
0.0
  0
LINE
  5
5B
  8
DIMNSIONS
  6
CONTINUOUS
 62
     7
 10
-89.999999999999986
 20
-60.0
 30
0.0
 11
-88.994940307274632
 21
-56.249066162109358
 31
0.0
  0
LINE
  5
5C
  8
DIMNSIONS
  6
CONTINUOUS
 62
     7
 10
-89.999999999999986
 20
85.999999999962654
 30
0.0
 11
-88.994940307274632
 21
82.249066162072026
 31
0.0
  0
LINE
  5
5D
  8
DIMNSIONS
  6
CONTINUOUS
 62
     7
 10
-89.999999999999986
 20
85.999999999962654
 30
0.0
 11
-91.005059692725354
 21
82.249066162072026
 31
0.0
  0
TEXT
  5
5E
  8
DIMNSIONS
 62
     7
 10
-91.490833377490432
 20
9.0312497476549982
 30
0.0
 40
4.0721031072996077
  1
146
 50
90.0
 41
0.7
 11
-95.562936484790029
 21
9.0312497476549982
 31
0.0
 73
     3
  0
LINE
  5
5F
  8
DIMNSIONS
  6
CONTINUOUS
 62
     7
 10
-71.499999999999986
 20
-5.0
 30
0.0
 11
-71.499999999999986
 21
-73.0
 31
0.0
  0
LINE
  5
60
  8
DIMNSIONS
  6
CONTINUOUS
 62
     7
 10
-28.499999999999989
 20
-5.0
 30
0.0
 11
-28.499999999999989
 21
-73.0
 31
0.0
  0
LINE
  5
61
  8
DIMNSIONS
  6
CONTINUOUS
 62
     7
 10
-71.499999999999986
 20
-70.0
 30
0.0
 11
-28.499999999999989
 21
-70.0
 31
0.0
  0
LINE
  5
62
  8
DIMNSIONS
  6
CONTINUOUS
 62
     7
 10
-71.499999999999986
 20
-70.0
 30
0.0
 11
-67.749066162109358
 21
-68.994940307274632
 31
0.0
  0
LINE
  5
63
  8
DIMNSIONS
  6
CONTINUOUS
 62
     7
 10
-71.499999999999986
 20
-70.0
 30
0.0
 11
-67.749066162109358
 21
-71.005059692725354
 31
0.0
  0
LINE
  5
64
  8
DIMNSIONS
  6
CONTINUOUS
 62
     7
 10
-28.499999999999989
 20
-70.0
 30
0.0
 11
-32.250933837890621
 21
-71.005059692725354
 31
0.0
  0
LINE
  5
65
  8
DIMNSIONS
  6
CONTINUOUS
 62
     7
 10
-28.499999999999989
 20
-70.0
 30
0.0
 11
-32.250933837890621
 21
-68.994940307274632
 31
0.0
  0
TEXT
  5
66
  8
DIMNSIONS
 62
     7
 10
-55.291667171319311
 20
-68.509166622509554
 30
0.0
 40
4.0721031072996077
  1
43.0
 41
0.7
 11
-55.291667171319311
 21
-64.437063515209942
 31
0.0
 73
     3
  0
LINE
  5
67
  8
DIMNSIONS
  6
CONTINUOUS
 62
     7
 10
-53.670000000001068
 20
100.0000000000003
 30
0.0
 11
-92.999999999999986
 21
100.0000000000003
 31
0.0
  0
LINE
  5
68
  8
DIMNSIONS
  6
CONTINUOUS
 62
     7
 10
-72.776784150520655
 20
133.19527291492221
 30
0.0
 11
-92.999999999999986
 21
133.19527291492221
 31
0.0
  0
LINE
  5
69
  8
DIMNSIONS
  6
CONTINUOUS
 62
     7
 10
-89.999999999999986
 20
100.0000000000003
 30
0.0
 11
-89.999999999999986
 21
133.19527291492221
 31
0.0
  0
LINE
  5
6A
  8
DIMNSIONS
  6
CONTINUOUS
 62
     7
 10
-89.999999999999986
 20
100.0000000000003
 30
0.0
 11
-91.005059692725354
 21
103.750933837891
 31
0.0
  0
LINE
  5
6B
  8
DIMNSIONS
  6
CONTINUOUS
 62
     7
 10
-89.999999999999986
 20
100.0000000000003
 30
0.0
 11
-88.994940307274632
 21
103.750933837891
 31
0.0
  0
LINE
  5
6C
  8
DIMNSIONS
  6
CONTINUOUS
 62
     7
 10
-89.999999999999986
 20
133.19527291492221
 30
0.0
 11
-88.994940307274632
 21
129.4443390770316
 31
0.0
  0
LINE
  5
6D
  8
DIMNSIONS
  6
CONTINUOUS
 62
     7
 10
-89.999999999999986
 20
133.19527291492221
 30
0.0
 11
-91.005059692725354
 21
129.4443390770316
 31
0.0
  0
TEXT
  5
6E
  8
DIMNSIONS
 62
     7
 10
-91.490833377490432
 20
111.3059692861419
 30
0.0
 40
4.0721031072996077
  1
33.2
 50
90.0
 41
0.7
 11
-95.562936484790029
 21
111.3059692861419
 31
0.0
 73
     3
  0
TEXT
  5
6F
  8
DATA
 62
     7
 10
79.82419272548394
 20
-176.91094716706351
 30
0.0
 40
3.664892578124999
  1
GC4099
 41
0.7
 11
79.82419272548394
 21
-173.24605458893851
 31
0.0
 73
     3
  0
TEXT
  5
70
  8
DATA
 62
     7
 10
79.867295034965153
 20
-165.53253412412329
 30
0.0
 40
3.664892578124999
  1
DPA
 41
0.7
 11
79.867295034965153
 21
-161.86764154599831
 31
0.0
 73
     3
  0
TEXT
  5
71
  8
DATA
 62
     7
 10
77.315030917519479
 20
-170.5779904609698
 30
0.0
 40
2.4432655664062488
  1
ギター用クリップ
 41
0.7
 11
77.315030917519479
 21
-168.13472489456359
 31
0.0
 73
     3
  0
TEXT
  5
72
  8
DATA
 62
     7
 10
-131.14481605205009
 20
-183.29375977608231
 30
0.0
 40
2.8504720052083332
  1
※仕様及び外観は予告なく変更されることがあります。
 41
0.7
 11
-131.14481605205009
 21
-180.44328777087389
 31
0.0
 73
     3
  0
TEXT
  5
73
  8
DATA
 62
     7
 10
-131.14481605205009
 20
-186.99792644274899
 30
0.0
 40
2.8504720052083332
  1
　また、同一商品でも若干の個体差があることがあります。ご了承ください。
 41
0.7
 11
-131.14481605205009
 21
-184.1474544375406
 31
0.0
 73
     3
  0
LINE
  5
74
  8
DATA
  6
CONTINUOUS
 62
     7
 10
-53.499999999999993
 20
-59.0
 30
0.0
 11
-53.499999999999993
 21
-34.90850274577955
 31
0.0
  0
LINE
  5
75
  8
DATA
  6
CONTINUOUS
 62
     7
 10
-46.499999999999993
 20
-34.90850274577955
 30
0.0
 11
-46.499999999999993
 21
-59.0
 31
0.0
  0
ARC
  5
76
  8
DATA
  6
CONTINUOUS
 62
     7
 10
-50.0
 20
-53.374999999999993
 30
0.0
 40
6.6250000000000089
 50
238.10920819815431
 51
301.89079180184581
  0
ARC
  5
77
  8
DATA
  6
CONTINUOUS
 62
     7
 10
-50.0
 20
-66.029502894879684
 30
0.0
 40
9.8637211628139347
 50
69.21662735449425
 51
86.512603824256061
  0
ARC
  5
78
  8
DATA
  6
CONTINUOUS
 62
     7
 10
-50.0
 20
-66.029502894879684
 30
0.0
 40
9.8637211628139045
 50
93.487396175744209
 51
110.78337264550569
  0
LINE
  5
79
  8
DATA
  6
CONTINUOUS
 62
     7
 10
-50.61788650853785
 20
-56.18515368122825
 30
0.0
 11
-50.742643326128643
 21
-40.901262209269142
 31
0.0
  0
LINE
  5
7A
  8
DATA
  6
CONTINUOUS
 62
     7
 10
-49.257356673871222
 20
-40.901262209269127
 30
0.0
 11
-49.382113491462107
 21
-56.185153681229167
 31
0.0
  0
LINE
  5
7B
  8
DATA
  6
CONTINUOUS
 62
     7
 10
-51.149999999999977
 20
-30.0
 30
0.0
 11
-48.850000000000001
 21
-30.0
 31
0.0
  0
LINE
  5
7C
  8
DATA
  6
CONTINUOUS
 62
     7
 10
-55.999999999999993
 20
-27.5
 30
0.0
 11
-55.999999999999993
 21
-19.5
 31
0.0
  0
LINE
  5
7D
  8
DATA
  6
CONTINUOUS
 62
     7
 10
-43.999999999999993
 20
-19.500000000000011
 30
0.0
 11
-43.999999999999993
 21
-27.5
 31
0.0
  0
LINE
  5
7E
  8
DATA
  6
CONTINUOUS
 62
     7
 10
-52.449999999999989
 20
-30.0
 30
0.0
 11
-52.449999999999982
 21
75.0
 31
0.0
  0
LINE
  5
7F
  8
DATA
  6
CONTINUOUS
 62
     7
 10
-47.549999999999983
 20
75.0
 30
0.0
 11
-47.54999999999999
 21
-30.0
 31
0.0
  0
ARC
  5
80
  8
DATA
  6
CONTINUOUS
 62
     7
 10
-49.411669435216027
 20
-25.084929401993229
 30
0.0
 40
8.6369865147582043
 50
110.59630770918859
 51
139.7120475551063
  0
ARC
  5
81
  8
DATA
  6
CONTINUOUS
 62
     7
 10
-50.588330564783952
 20
-25.084929401993229
 30
0.0
 40
8.6369865147582043
 50
40.287952444893669
 51
69.403692290811421
  0
ARC
  5
82
  8
DATA
  6
CONTINUOUS
 62
     7
 10
-49.411669435216027
 20
-21.915070598006761
 30
0.0
 40
8.6369865147582043
 50
220.2879524448937
 51
249.40369229081139
  0
ARC
  5
83
  8
DATA
  6
CONTINUOUS
 62
     7
 10
-50.588330564783952
 20
-21.915070598006761
 30
0.0
 40
8.6369865147582043
 50
290.59630770918858
 51
319.71204755510632
  0
LINE
  5
84
  8
DATA
  6
CONTINUOUS
 62
     7
 10
-52.449999999999989
 20
3.5
 30
0.0
 11
-47.54999999999999
 21
3.5
 31
0.0
  0
LINE
  5
85
  8
DATA
  6
CONTINUOUS
 62
     7
 10
-52.449999999999989
 20
2.0
 30
0.0
 11
-47.54999999999999
 21
2.0
 31
0.0
  0
LINE
  5
86
  8
DATA
  6
CONTINUOUS
 62
     7
 10
-52.449999999999989
 20
0.5
 30
0.0
 11
-47.54999999999999
 21
0.5
 31
0.0
  0
LINE
  5
87
  8
DATA
  6
CONTINUOUS
 62
     7
 10
-52.449999999999989
 20
-1.0
 30
0.0
 11
-47.54999999999999
 21
-1.0
 31
0.0
  0
LINE
  5
88
  8
DATA
  6
CONTINUOUS
 62
     7
 10
-52.449999999999989
 20
-2.5
 30
0.0
 11
-47.54999999999999
 21
-2.5
 31
0.0
  0
LINE
  5
89
  8
DATA
  6
CONTINUOUS
 62
     7
 10
-52.449999999999989
 20
-4.0
 30
0.0
 11
-47.54999999999999
 21
-4.0
 31
0.0
  0
LINE
  5
8A
  8
DATA
  6
CONTINUOUS
 62
     7
 10
-52.449999999999989
 20
-5.5
 30
0.0
 11
-47.54999999999999
 21
-5.5
 31
0.0
  0
LINE
  5
8B
  8
DATA
  6
CONTINUOUS
 62
     7
 10
-52.449999999999989
 20
-7.0
 30
0.0
 11
-47.54999999999999
 21
-7.0
 31
0.0
  0
LINE
  5
8C
  8
DATA
  6
CONTINUOUS
 62
     7
 10
-52.449999999999989
 20
-8.5
 30
0.0
 11
-47.54999999999999
 21
-8.5
 31
0.0
  0
LINE
  5
8D
  8
DATA
  6
CONTINUOUS
 62
     7
 10
-52.449999999999989
 20
-10.0
 30
0.0
 11
-47.54999999999999
 21
-10.0
 31
0.0
  0
LINE
  5
8E
  8
DATA
  6
CONTINUOUS
 62
     7
 10
-52.449999999999989
 20
-11.5
 30
0.0
 11
-47.54999999999999
 21
-11.5
 31
0.0
  0
LINE
  5
8F
  8
DATA
  6
CONTINUOUS
 62
     7
 10
-52.449999999999989
 20
-13.0
 30
0.0
 11
-47.54999999999999
 21
-13.0
 31
0.0
  0
LINE
  5
90
  8
DATA
  6
CONTINUOUS
 62
     7
 10
-52.449999999999989
 20
-14.5
 30
0.0
 11
-47.54999999999999
 21
-14.5
 31
0.0
  0
LINE
  5
91
  8
DATA
  6
CONTINUOUS
 62
     7
 10
-52.449999999999989
 20
-16.0
 30
0.0
 11
-47.54999999999999
 21
-16.0
 31
0.0
  0
LINE
  5
92
  8
DATA
  6
CONTINUOUS
 62
     7
 10
-54.475000000000001
 20
-14.0
 30
0.0
 11
-53.204385329558242
 21
-14.0
 31
0.0
  0
LINE
  5
93
  8
DATA
  6
CONTINUOUS
 62
     7
 10
-54.47499999999998
 20
-14.0
 30
0.0
 11
-54.47499999999998
 21
-18.08777143265743
 31
0.0
  0
LINE
  5
94
  8
DATA
  6
CONTINUOUS
 62
     7
 10
-45.524999999999977
 20
-14.0
 30
0.0
 11
-45.524999999999977
 21
-18.087771432657441
 31
0.0
  0
LINE
  5
95
  8
DATA
  6
CONTINUOUS
 62
     7
 10
-45.524999999999977
 20
-14.0
 30
0.0
 11
-46.795614670441743
 21
-14.0
 31
0.0
  0
LINE
  5
96
  8
DATA
  6
CONTINUOUS
 62
     7
 10
-51.149999999999977
 20
-30.0
 30
0.0
 11
-51.149999999999977
 21
-19.0
 31
0.0
  0
LINE
  5
97
  8
DATA
  6
CONTINUOUS
 62
     7
 10
-48.84999999999998
 20
-19.0
 30
0.0
 11
-48.84999999999998
 21
-30.0
 31
0.0
  0
LINE
  5
98
  8
DATA
  6
CONTINUOUS
 62
     7
 10
-52.449999999999989
 20
-17.5
 30
0.0
 11
-47.54999999999999
 21
-17.5
 31
0.0
  0
LINE
  5
99
  8
DATA
  6
CONTINUOUS
 62
     7
 10
-51.149999999999977
 20
-19.0
 30
0.0
 11
-48.84999999999998
 21
-19.0
 31
0.0
  0
LINE
  5
9A
  8
DATA
  6
CONTINUOUS
 62
     7
 10
-52.449999999999989
 20
-23.399999999999999
 30
0.0
 11
-51.149999999999977
 21
-23.399999999999999
 31
0.0
  0
LINE
  5
9B
  8
DATA
  6
CONTINUOUS
 62
     7
 10
-48.84999999999998
 20
-23.399999999999999
 30
0.0
 11
-47.54999999999999
 21
-23.399999999999999
 31
0.0
  0
LINE
  5
9C
  8
DATA
  6
CONTINUOUS
 62
     7
 10
-47.54999999999999
 20
-25.600000000000001
 30
0.0
 11
-48.850000000000001
 21
-25.600000000000001
 31
0.0
  0
LINE
  5
9D
  8
DATA
  6
CONTINUOUS
 62
     7
 10
-51.149999999999977
 20
-25.600000000000001
 30
0.0
 11
-52.449999999999989
 21
-25.600000000000001
 31
0.0
  0
LINE
  5
9E
  8
DATA
  6
CONTINUOUS
 62
     7
 10
-52.449999999999989
 20
-30.0
 30
0.0
 11
-52.449999999999989
 21
-35.899999999999991
 31
0.0
  0
LINE
  5
9F
  8
DATA
  6
CONTINUOUS
 62
     7
 10
-47.549999999999983
 20
-30.0
 30
0.0
 11
-47.549999999999983
 21
-35.899999999999991
 31
0.0
  0
ARC
  5
A0
  8
DATA
  6
CONTINUOUS
 62
     7
 10
-58.026690561344061
 20
-31.33421436539642
 30
0.0
 40
5.5817813688234512
 50
327.10795290412608
 51
357.55275432602781
  0
ARC
  5
A1
  8
DATA
  6
CONTINUOUS
 62
     7
 10
-41.973309438655903
 20
-31.33421436539642
 30
0.0
 40
5.5817813688234521
 50
182.44724567397219
 51
212.89204709587389
  0
ARC
  5
A2
  8
DATA
  6
CONTINUOUS
 62
     7
 10
-50.0
 20
-35.059999999999988
 30
0.0
 40
2.590000000000003
 50
198.92464441605131
 51
341.07535558394881
  0
ARC
  5
A3
  8
DATA
  6
CONTINUOUS
 62
     7
 10
-50.910714285714249
 20
-37.330357142857132
 30
0.0
 40
2.6744760358482522
 50
194.5001667665525
 51
256.91487354845731
  0
ARC
  5
A4
  8
DATA
  6
CONTINUOUS
 62
     7
 10
-51.742610017777942
 20
-40.909424571739201
 30
0.0
 40
1.0000000042845669
 50
0.4676741115497066
 51
76.914873309805202
  0
ARC
  5
A5
  8
DATA
  6
CONTINUOUS
 62
     7
 10
-49.089285714285708
 20
-37.330357142857132
 30
0.0
 40
2.6744760358482522
 50
283.08512645154269
 51
345.4998332334473
  0
ARC
  5
A6
  8
DATA
  6
CONTINUOUS
 62
     7
 10
-48.257389982222037
 20
-40.909424571739201
 30
0.0
 40
1.000000004284566
 50
103.0851266901948
 51
179.53232588845029
  0
ARC
  5
A7
  8
DATA
  6
CONTINUOUS
 62
     7
 10
-52.5
 20
-34.90850274577955
 30
0.0
 40
0.9999999999999939
 50
147.1079529041258
 51
180.0
  0
ARC
  5
A8
  8
DATA
  6
CONTINUOUS
 62
     7
 10
-47.499999999999979
 20
-34.90850274577955
 30
0.0
 40
0.9999999999999927
 50
0.0
 51
32.892047095874211
  0
LINE
  5
A9
  8
DATA
  6
CONTINUOUS
 62
     7
 10
-52.449999999999989
 20
-18.789780411990279
 30
0.0
 11
-47.54999999999999
 21
-18.789780411990279
 31
0.0
  0
ARC
  5
AA
  8
DATA
  6
CONTINUOUS
 62
     7
 10
-71.212673428687538
 20
107.6879995950687
 30
0.0
 40
120.5373230666267
 50
270.69002548191918
 51
270.6943389781232
  0
ARC
  5
AB
  8
DATA
  6
CONTINUOUS
 62
     7
 10
-50.0
 20
106.4123230666268
 30
0.0
 40
120.5373230666268
 50
272.12761941520739
 51
275.492506942722
  0
ARC
  5
AC
  8
DATA
  6
CONTINUOUS
 62
     7
 10
-50.0
 20
106.4123230666268
 30
0.0
 40
120.5373230666268
 50
279.30566102187669
 51
279.30997451808082
  0
ARC
  5
AD
  8
DATA
  6
CONTINUOUS
 62
     7
 10
-49.699999999999967
 20
103.9004294448561
 30
0.0
 40
120.5373230666267
 50
264.07225037488757
 51
267.72967453414242
  0
ARC
  5
AE
  8
DATA
  6
CONTINUOUS
 62
     7
 10
-50.0
 20
103.9123230666268
 30
0.0
 40
120.5373230666268
 50
272.12761941520739
 51
275.79014999196937
  0
LINE
  5
AF
  8
DATA
  6
CONTINUOUS
 62
     7
 10
-68.403398584205164
 20
0.1942327269347253
 30
0.0
 11
-65.518880024691214
 21
-10.561089852860929
 31
0.0
  0
LINE
  5
B0
  8
DATA
  6
CONTINUOUS
 62
     7
 10
-71.253054510443363
 20
-0.3503677107711933
 30
0.0
 11
-68.922244339945749
 21
-9.041112713359837
 31
0.0
  0
ARC
  5
B1
  8
DATA
  6
CONTINUOUS
 62
     7
 10
-67.344078381103657
 20
-15.14374234217969
 30
0.0
 40
1.999999999999996
 50
190.10643035660081
 51
222.97248152509769
  0
ARC
  5
B2
  8
DATA
  6
CONTINUOUS
 62
     7
 10
-65.683003702789023
 20
-13.596256021458149
 30
0.0
 40
4.270216509445377
 50
222.97248152509781
 51
325.86654132881392
  0
ARC
  5
B3
  8
DATA
  6
CONTINUOUS
 62
     7
 10
-61.1544369164423
 20
-9.5899450345291033
 30
0.0
 40
4.0000000000000009
 50
240.0597232811148
 51
264.50749305727788
  0
ARC
  5
B4
  8
DATA
  6
CONTINUOUS
 62
     7
 10
-50.0
 20
106.4123230666268
 30
0.0
 40
120.5373230666268
 50
264.50749305727788
 51
267.8723871878201
  0
ARC
  5
B5
  8
DATA
  6
CONTINUOUS
 62
     7
 10
-70.907951871613946
 20
-1.891636293324588
 30
0.0
 40
0.5773502691896183
 50
98.456239199148683
 51
291.56998831091988
  0
ARC
  5
B6
  8
DATA
  6
CONTINUOUS
 62
     7
 10
-70.391968310092196
 20
-3.831507693597751
 30
0.0
 40
0.5773502691896189
 50
98.043183728667557
 51
291.98304378140421
  0
ARC
  5
B7
  8
DATA
  6
CONTINUOUS
 62
     7
 10
-69.845314347445395
 20
-5.765971074643395
 30
0.0
 40
0.5773502691896241
 50
100.7250169855627
 51
289.30121052450562
  0
ARC
  5
B8
  8
DATA
  6
CONTINUOUS
 62
     7
 10
-69.334738805151204
 20
-7.6751720737914857
 30
0.0
 40
0.5773502691896191
 50
100.584503989155
 51
289.44172352091999
  0
ARC
  5
B9
  8
DATA
  6
CONTINUOUS
 62
     7
 10
-70.963294541522728
 20
-0.2726556754552227
 30
0.0
 40
0.3000000000363917
 50
115.49648013003591
 51
195.01311375503539
  0
ARC
  5
BA
  8
DATA
  6
CONTINUOUS
 62
     7
 10
-68.693158557383555
 20
0.116520690476845
 30
0.0
 40
0.3000000044446353
 50
15.01311375503524
 51
83.959177234425425
  0
ARC
  5
BB
  8
DATA
  6
CONTINUOUS
 62
     7
 10
-69.139127617943601
 20
-4.0977058860594067
 30
0.0
 40
4.5377581430553278
 50
83.959177229842183
 51
115.4964801232009
  0
ARC
  5
BC
  8
DATA
  6
CONTINUOUS
 62
     7
 10
-61.37452840573939
 20
-8.9989507446969554
 30
0.0
 40
4.4289873486796116
 50
200.65303598853819
 51
246.3554417570289
  0
ARC
  5
BD
  8
DATA
  6
CONTINUOUS
 62
     7
 10
-50.0
 20
106.4123230666268
 30
0.0
 40
120.5373230666268
 50
279.30566102187669
 51
279.30997451808082
  0
ARC
  5
BE
  8
DATA
  6
CONTINUOUS
 62
     7
 10
-32.655921618896322
 20
-15.14374234217969
 30
0.0
 40
1.999999999999994
 50
317.02751847490219
 51
349.8935696433993
  0
ARC
  5
BF
  8
DATA
  6
CONTINUOUS
 62
     7
 10
-34.316996297210949
 20
-13.596256021458149
 30
0.0
 40
4.2702165094453743
 50
214.42015416479731
 51
317.02751847490219
  0
ARC
  5
C0
  8
DATA
  6
CONTINUOUS
 62
     7
 10
-38.845563083557671
 20
-9.5899450345291033
 30
0.0
 40
4.0000000000000044
 50
275.492506942722
 51
299.9402767188854
  0
ARC
  5
C1
  8
DATA
  6
CONTINUOUS
 62
     7
 10
-38.625471594260603
 20
-8.9989507446969554
 30
0.0
 40
4.4289873486796196
 50
293.64455824297141
 51
322.01693860195479
  0
LINE
  5
C2
  8
DATA
  6
CONTINUOUS
 62
     7
 10
-50.59999999999998
 20
-56.184047335194137
 30
0.0
 11
-50.374853177784651
 21
-56.57401307043375
 31
0.0
  0
LINE
  5
C3
  8
DATA
  6
CONTINUOUS
 62
     7
 10
-49.399999999999977
 20
-56.184047335194137
 30
0.0
 11
-49.625146822215292
 21
-56.574013070433722
 31
0.0
  0
POLYLINE
  5
C4
  8
DATA
  6
CONTINUOUS
 62
     7
 66
     1
 10
0.0
 20
0.0
 30
0.0
 70
   128
  0
VERTEX
  5
7B6
  8
DATA
  6
CONTINUOUS
 62
     7
 10
-48.116593399712073
 20
-59.166166714756017
 30
0.0
  0
VERTEX
  5
7B7
  8
DATA
  6
CONTINUOUS
 62
     7
 10
-48.116402199519037
 20
-59.166807331434349
 30
0.0
  0
VERTEX
  5
7B8
  8
DATA
  6
CONTINUOUS
 62
     7
 10
-48.11621401035265
 20
-59.167448162104847
 30
0.0
  0
VERTEX
  5
7B9
  8
DATA
  6
CONTINUOUS
 62
     7
 10
-48.116028832212933
 20
-59.168089206767597
 30
0.0
  0
VERTEX
  5
7BA
  8
DATA
  6
CONTINUOUS
 62
     7
 10
-48.115846665099852
 20
-59.168730465422527
 30
0.0
  0
VERTEX
  5
7BB
  8
DATA
  6
CONTINUOUS
 62
     7
 10
-48.115667509013463
 20
-59.169371938069688
 30
0.0
  0
VERTEX
  5
7BC
  8
DATA
  6
CONTINUOUS
 62
     7
 10
-48.115491363953709
 20
-59.170013624709043
 30
0.0
  0
VERTEX
  5
7BD
  8
DATA
  6
CONTINUOUS
 62
     7
 10
-48.115318229920632
 20
-59.170655525340628
 30
0.0
  0
VERTEX
  5
7BE
  8
DATA
  6
CONTINUOUS
 62
     7
 10
-48.115148106914212
 20
-59.171297639964422
 30
0.0
  0
VERTEX
  5
7BF
  8
DATA
  6
CONTINUOUS
 62
     7
 10
-48.114980994934463
 20
-59.171939968580411
 30
0.0
  0
VERTEX
  5
7C0
  8
DATA
  6
CONTINUOUS
 62
     7
 10
-48.11481689398137
 20
-59.172582511188622
 30
0.0
  0
VERTEX
  5
7C1
  8
DATA
  6
CONTINUOUS
 62
     7
 10
-48.114655804054941
 20
-59.173225267789043
 30
0.0
  0
VERTEX
  5
7C2
  8
DATA
  6
CONTINUOUS
 62
     7
 10
-48.114497725155182
 20
-59.173868238381672
 30
0.0
  0
VERTEX
  5
7C3
  8
DATA
  6
CONTINUOUS
 62
     7
 10
-48.114342657282059
 20
-59.174511422966518
 30
0.0
  0
VERTEX
  5
7C4
  8
DATA
  6
CONTINUOUS
 62
     7
 10
-48.11419060043562
 20
-59.175154821543579
 30
0.0
  0
VERTEX
  5
7C5
  8
DATA
  6
CONTINUOUS
 62
     7
 10
-48.114041554615852
 20
-59.175798434112849
 30
0.0
  0
VERTEX
  5
7C6
  8
DATA
  6
CONTINUOUS
 62
     7
 10
-48.113895519822741
 20
-59.176442260674321
 30
0.0
  0
VERTEX
  5
7C7
  8
DATA
  6
CONTINUOUS
 62
     7
 10
-48.113752496056293
 20
-59.17708630122803
 30
0.0
  0
VERTEX
  5
7C8
  8
DATA
  6
CONTINUOUS
 62
     7
 10
-48.113612483316501
 20
-59.177730555773913
 30
0.0
  0
VERTEX
  5
7C9
  8
DATA
  6
CONTINUOUS
 62
     7
 10
-48.113475481603373
 20
-59.178375024312011
 30
0.0
  0
VERTEX
  5
7CA
  8
DATA
  6
CONTINUOUS
 62
     7
 10
-48.113341490916902
 20
-59.17901970684234
 30
0.0
  0
VERTEX
  5
7CB
  8
DATA
  6
CONTINUOUS
 62
     7
 10
-48.113210511257087
 20
-59.179664603364877
 30
0.0
  0
VERTEX
  5
7CC
  8
DATA
  6
CONTINUOUS
 62
     7
 10
-48.113082542623943
 20
-59.180309713879609
 30
0.0
  0
VERTEX
  5
7CD
  8
DATA
  6
CONTINUOUS
 62
     7
 10
-48.112957585017462
 20
-59.180955038386571
 30
0.0
  0
VERTEX
  5
7CE
  8
DATA
  6
CONTINUOUS
 62
     7
 10
-48.112835638437652
 20
-59.181600576885749
 30
0.0
  0
VERTEX
  5
7CF
  8
DATA
  6
CONTINUOUS
 62
     7
 10
-48.112716702884491
 20
-59.182246329377143
 30
0.0
  0
VERTEX
  5
7D0
  8
DATA
  6
CONTINUOUS
 62
     7
 10
-48.112600778358001
 20
-59.182892295860718
 30
0.0
  0
VERTEX
  5
7D1
  8
DATA
  6
CONTINUOUS
 62
     7
 10
-48.112487864858153
 20
-59.18353847633653
 30
0.0
  0
VERTEX
  5
7D2
  8
DATA
  6
CONTINUOUS
 62
     7
 10
-48.112377962384969
 20
-59.184184870804529
 30
0.0
  0
VERTEX
  5
7D3
  8
DATA
  6
CONTINUOUS
 62
     7
 10
-48.112271070938483
 20
-59.184831479264759
 30
0.0
  0
VERTEX
  5
7D4
  8
DATA
  6
CONTINUOUS
 62
     7
 10
-48.112167190518633
 20
-59.185478301717183
 30
0.0
  0
VERTEX
  5
7D5
  8
DATA
  6
CONTINUOUS
 62
     7
 10
-48.11206632112544
 20
-59.186125338161837
 30
0.0
  0
VERTEX
  5
7D6
  8
DATA
  6
CONTINUOUS
 62
     7
 10
-48.111968462758931
 20
-59.186772588598693
 30
0.0
  0
VERTEX
  5
7D7
  8
DATA
  6
CONTINUOUS
 62
     7
 10
-48.111873615419057
 20
-59.187420053027751
 30
0.0
  0
VERTEX
  5
7D8
  8
DATA
  6
CONTINUOUS
 62
     7
 10
-48.111781779105861
 20
-59.188067731449038
 30
0.0
  0
VERTEX
  5
7D9
  8
DATA
  6
CONTINUOUS
 62
     7
 10
-48.111692953819329
 20
-59.188715623862542
 30
0.0
  0
VERTEX
  5
7DA
  8
DATA
  6
CONTINUOUS
 62
     7
 10
-48.11160713955946
 20
-59.189363730268241
 30
0.0
  0
VERTEX
  5
7DB
  8
DATA
  6
CONTINUOUS
 62
     7
 10
-48.111524336326241
 20
-59.190012050666141
 30
0.0
  0
VERTEX
  5
7DC
  8
DATA
  6
CONTINUOUS
 62
     7
 10
-48.111444544119692
 20
-59.190660585056271
 30
0.0
  0
VERTEX
  5
7DD
  8
DATA
  6
CONTINUOUS
 62
     7
 10
-48.111367762939807
 20
-59.191309333438603
 30
0.0
  0
VERTEX
  5
7DE
  8
DATA
  6
CONTINUOUS
 62
     7
 10
-48.111293992786578
 20
-59.191958295813151
 30
0.0
  0
VERTEX
  5
7DF
  8
DATA
  6
CONTINUOUS
 62
     7
 10
-48.11122323366002
 20
-59.192607472179908
 30
0.0
  0
VERTEX
  5
7E0
  8
DATA
  6
CONTINUOUS
 62
     7
 10
-48.111155485560118
 20
-59.193256862538881
 30
0.0
  0
VERTEX
  5
7E1
  8
DATA
  6
CONTINUOUS
 62
     7
 10
-48.11109074848688
 20
-59.193906466890063
 30
0.0
  0
VERTEX
  5
7E2
  8
DATA
  6
CONTINUOUS
 62
     7
 10
-48.111029022440313
 20
-59.194556285233453
 30
0.0
  0
VERTEX
  5
7E3
  8
DATA
  6
CONTINUOUS
 62
     7
 10
-48.110970307420402
 20
-59.195206317569038
 30
0.0
  0
VERTEX
  5
7E4
  8
DATA
  6
CONTINUOUS
 62
     7
 10
-48.11091460342714
 20
-59.195856563896868
 30
0.0
  0
VERTEX
  5
7E5
  8
DATA
  6
CONTINUOUS
 62
     7
 10
-48.110861910460549
 20
-59.196507024216892
 30
0.0
  0
VERTEX
  5
7E6
  8
DATA
  6
CONTINUOUS
 62
     7
 10
-48.110812228520629
 20
-59.197157698529132
 30
0.0
  0
VERTEX
  5
7E7
  8
DATA
  6
CONTINUOUS
 62
     7
 10
-48.110765557607358
 20
-59.197808586833581
 30
0.0
  0
VERTEX
  5
7E8
  8
DATA
  6
CONTINUOUS
 62
     7
 10
-48.110721897720772
 20
-59.198459689130239
 30
0.0
  0
VERTEX
  5
7E9
  8
DATA
  6
CONTINUOUS
 62
     7
 10
-48.110681248860807
 20
-59.199111005419113
 30
0.0
  0
VERTEX
  5
7EA
  8
DATA
  6
CONTINUOUS
 62
     7
 10
-48.110643611027527
 20
-59.199762535700181
 30
0.0
  0
VERTEX
  5
7EB
  8
DATA
  6
CONTINUOUS
 62
     7
 10
-48.110608984220931
 20
-59.200414279973486
 30
0.0
  0
VERTEX
  5
7EC
  8
DATA
  6
CONTINUOUS
 62
     7
 10
-48.110577368440971
 20
-59.201066238238973
 30
0.0
  0
VERTEX
  5
7ED
  8
DATA
  6
CONTINUOUS
 62
     7
 10
-48.110548763687682
 20
-59.201718410496703
 30
0.0
  0
VERTEX
  5
7EE
  8
DATA
  6
CONTINUOUS
 62
     7
 10
-48.110523169961063
 20
-59.202370796746628
 30
0.0
  0
VERTEX
  5
7EF
  8
DATA
  6
CONTINUOUS
 62
     7
 10
-48.1105005872611
 20
-59.203023396988748
 30
0.0
  0
VERTEX
  5
7F0
  8
DATA
  6
CONTINUOUS
 62
     7
 10
-48.11048101558778
 20
-59.203676211223097
 30
0.0
  0
VERTEX
  5
7F1
  8
DATA
  6
CONTINUOUS
 62
     7
 10
-48.110464454941152
 20
-59.20432923944967
 30
0.0
  0
VERTEX
  5
7F2
  8
DATA
  6
CONTINUOUS
 62
     7
 10
-48.110450905321159
 20
-59.204982481668452
 30
0.0
  0
VERTEX
  5
7F3
  8
DATA
  6
CONTINUOUS
 62
     7
 10
-48.11044036672785
 20
-59.205635937879421
 30
0.0
  0
VERTEX
  5
7F4
  8
DATA
  6
CONTINUOUS
 62
     7
 10
-48.110432839161177
 20
-59.206289608082621
 30
0.0
  0
VERTEX
  5
7F5
  8
DATA
  6
CONTINUOUS
 62
     7
 10
-48.11042832262121
 20
-59.206943492278022
 30
0.0
  0
VERTEX
  5
7F6
  8
DATA
  6
CONTINUOUS
 62
     7
 10
-48.110426817107871
 20
-59.207597590465639
 30
0.0
  0
VERTEX
  5
7F7
  8
DATA
  6
CONTINUOUS
 62
     7
 10
-48.110426817107871
 20
-59.207597590465639
 30
0.0
  0
VERTEX
  5
7F8
  8
DATA
  6
CONTINUOUS
 62
     7
 10
-48.110488476835272
 20
-59.211779914470313
 30
0.0
  0
VERTEX
  5
7F9
  8
DATA
  6
CONTINUOUS
 62
     7
 10
-48.110673456017487
 20
-59.215953474220889
 30
0.0
  0
VERTEX
  5
7FA
  8
DATA
  6
CONTINUOUS
 62
     7
 10
-48.110981754654532
 20
-59.220118269717318
 30
0.0
  0
VERTEX
  5
7FB
  8
DATA
  6
CONTINUOUS
 62
     7
 10
-48.111413372746377
 20
-59.224274300959642
 30
0.0
  0
VERTEX
  5
7FC
  8
DATA
  6
CONTINUOUS
 62
     7
 10
-48.11196831029303
 20
-59.228421567947862
 30
0.0
  0
VERTEX
  5
7FD
  8
DATA
  6
CONTINUOUS
 62
     7
 10
-48.112646567294519
 20
-59.232560070681963
 30
0.0
  0
VERTEX
  5
7FE
  8
DATA
  6
CONTINUOUS
 62
     7
 10
-48.113448143750801
 20
-59.23668980916193
 30
0.0
  0
VERTEX
  5
7FF
  8
DATA
  6
CONTINUOUS
 62
     7
 10
-48.114373039661892
 20
-59.240810783387793
 30
0.0
  0
VERTEX
  5
800
  8
DATA
  6
CONTINUOUS
 62
     7
 10
-48.115421255027812
 20
-59.244922993359538
 30
0.0
  0
VERTEX
  5
801
  8
DATA
  6
CONTINUOUS
 62
     7
 10
-48.116592789848539
 20
-59.249026439077149
 30
0.0
  0
VERTEX
  5
802
  8
DATA
  6
CONTINUOUS
 62
     7
 10
-48.117887644124082
 20
-59.253121120540648
 30
0.0
  0
VERTEX
  5
803
  8
DATA
  6
CONTINUOUS
 62
     7
 10
-48.119305817854432
 20
-59.257207037750057
 30
0.0
  0
VERTEX
  5
804
  8
DATA
  6
CONTINUOUS
 62
     7
 10
-48.12084731103959
 20
-59.261284190705346
 30
0.0
  0
VERTEX
  5
805
  8
DATA
  6
CONTINUOUS
 62
     7
 10
-48.12251212367957
 20
-59.265352579406503
 30
0.0
  0
VERTEX
  5
806
  8
DATA
  6
CONTINUOUS
 62
     7
 10
-48.124300255774358
 20
-59.269412203853541
 30
0.0
  0
VERTEX
  5
807
  8
DATA
  6
CONTINUOUS
 62
     7
 10
-48.126211707323961
 20
-59.273463064046467
 30
0.0
  0
VERTEX
  5
808
  8
DATA
  6
CONTINUOUS
 62
     7
 10
-48.128246478328379
 20
-59.277505159985282
 30
0.0
  0
VERTEX
  5
809
  8
DATA
  6
CONTINUOUS
 62
     7
 10
-48.130404568787611
 20
-59.281538491669963
 30
0.0
  0
VERTEX
  5
80A
  8
DATA
  6
CONTINUOUS
 62
     7
 10
-48.132685978701652
 20
-59.285563059100539
 30
0.0
  0
VERTEX
  5
80B
  8
DATA
  6
CONTINUOUS
 62
     7
 10
-48.1350907080705
 20
-59.289578862277011
 30
0.0
  0
VERTEX
  5
80C
  8
DATA
  6
CONTINUOUS
 62
     7
 10
-48.137618756894177
 20
-59.29358590119935
 30
0.0
  0
VERTEX
  5
80D
  8
DATA
  6
CONTINUOUS
 62
     7
 10
-48.140270125172648
 20
-59.29758417586757
 30
0.0
  0
VERTEX
  5
80E
  8
DATA
  6
CONTINUOUS
 62
     7
 10
-48.143044812905963
 20
-59.301573686281692
 30
0.0
  0
VERTEX
  5
80F
  8
DATA
  6
CONTINUOUS
 62
     7
 10
-48.145942820094056
 20
-59.305554432441681
 30
0.0
  0
VERTEX
  5
810
  8
DATA
  6
CONTINUOUS
 62
     7
 10
-48.148964146736972
 20
-59.309526414347573
 30
0.0
  0
VERTEX
  5
811
  8
DATA
  6
CONTINUOUS
 62
     7
 10
-48.152108792834717
 20
-59.313489631999317
 30
0.0
  0
VERTEX
  5
812
  8
DATA
  6
CONTINUOUS
 62
     7
 10
-48.155376758387277
 20
-59.317444085396957
 30
0.0
  0
VERTEX
  5
813
  8
DATA
  6
CONTINUOUS
 62
     7
 10
-48.158768043394637
 20
-59.321389774540471
 30
0.0
  0
VERTEX
  5
814
  8
DATA
  6
CONTINUOUS
 62
     7
 10
-48.16228264785682
 20
-59.325326699429901
 30
0.0
  0
VERTEX
  5
815
  8
DATA
  6
CONTINUOUS
 62
     7
 10
-48.165920571773803
 20
-59.329254860065177
 30
0.0
  0
VERTEX
  5
816
  8
DATA
  6
CONTINUOUS
 62
     7
 10
-48.169681815145601
 20
-59.333174256446362
 30
0.0
  0
VERTEX
  5
817
  8
DATA
  6
CONTINUOUS
 62
     7
 10
-48.173566377972222
 20
-59.337084888573408
 30
0.0
  0
VERTEX
  5
818
  8
DATA
  6
CONTINUOUS
 62
     7
 10
-48.17757426025365
 20
-59.340986756446362
 30
0.0
  0
VERTEX
  5
819
  8
DATA
  6
CONTINUOUS
 62
     7
 10
-48.181705461989893
 20
-59.344879860065177
 30
0.0
  0
VERTEX
  5
81A
  8
DATA
  6
CONTINUOUS
 62
     7
 10
-48.185959983180943
 20
-59.348764199429887
 30
0.0
  0
VERTEX
  5
81B
  8
DATA
  6
CONTINUOUS
 62
     7
 10
-48.190337823826809
 20
-59.352639774540471
 30
0.0
  0
VERTEX
  5
81C
  8
DATA
  6
CONTINUOUS
 62
     7
 10
-48.19483898392749
 20
-59.356506585396957
 30
0.0
  0
VERTEX
  5
81D
  8
DATA
  6
CONTINUOUS
 62
     7
 10
-48.199463463482978
 20
-59.360364631999317
 30
0.0
  0
VERTEX
  5
81E
  8
DATA
  6
CONTINUOUS
 62
     7
 10
-48.204211262493281
 20
-59.364213914347559
 30
0.0
  0
VERTEX
  5
81F
  8
DATA
  6
CONTINUOUS
 62
     7
 10
-48.209082380958421
 20
-59.368054432441681
 30
0.0
  0
VERTEX
  5
820
  8
DATA
  6
CONTINUOUS
 62
     7
 10
-48.214076818878347
 20
-59.371886186281692
 30
0.0
  0
VERTEX
  5
821
  8
DATA
  6
CONTINUOUS
 62
     7
 10
-48.219194576253102
 20
-59.37570917586757
 30
0.0
  0
VERTEX
  5
822
  8
DATA
  6
CONTINUOUS
 62
     7
 10
-48.224435653082651
 20
-59.37952340119935
 30
0.0
  0
VERTEX
  5
823
  8
DATA
  6
CONTINUOUS
 62
     7
 10
-48.229800049367022
 20
-59.383328862277011
 30
0.0
  0
VERTEX
  5
824
  8
DATA
  6
CONTINUOUS
 62
     7
 10
-48.2352877651062
 20
-59.387125559100539
 30
0.0
  0
VERTEX
  5
825
  8
DATA
  6
CONTINUOUS
 62
     7
 10
-48.240898800300222
 20
-59.390913491669963
 30
0.0
  0
VERTEX
  5
826
  8
DATA
  6
CONTINUOUS
 62
     7
 10
-48.246633154949023
 20
-59.394692659985282
 30
0.0
  0
VERTEX
  5
827
  8
DATA
  6
CONTINUOUS
 62
     7
 10
-48.252490829052661
 20
-59.39846306404646
 30
0.0
  0
VERTEX
  5
828
  8
DATA
  6
CONTINUOUS
 62
     7
 10
-48.258471822611099
 20
-59.402224703853541
 30
0.0
  0
VERTEX
  5
829
  8
DATA
  6
CONTINUOUS
 62
     7
 10
-48.264576135624353
 20
-59.40597757940651
 30
0.0
  0
VERTEX
  5
82A
  8
DATA
  6
CONTINUOUS
 62
     7
 10
-48.270803768092421
 20
-59.409721690705339
 30
0.0
  0
VERTEX
  5
82B
  8
DATA
  6
CONTINUOUS
 62
     7
 10
-48.277154720015282
 20
-59.413457037750057
 30
0.0
  0
VERTEX
  5
82C
  8
DATA
  6
CONTINUOUS
 62
     7
 10
-48.283628991392973
 20
-59.417183620540648
 30
0.0
  0
VERTEX
  5
82D
  8
DATA
  6
CONTINUOUS
 62
     7
 10
-48.290226582225493
 20
-59.420901439077163
 30
0.0
  0
VERTEX
  5
82E
  8
DATA
  6
CONTINUOUS
 62
     7
 10
-48.2969474925128
 20
-59.42461049335953
 30
0.0
  0
VERTEX
  5
82F
  8
DATA
  6
CONTINUOUS
 62
     7
 10
-48.303791722254942
 20
-59.428310783387779
 30
0.0
  0
VERTEX
  5
830
  8
DATA
  6
CONTINUOUS
 62
     7
 10
-48.310759271451893
 20
-59.43200230916193
 30
0.0
  0
VERTEX
  5
831
  8
DATA
  6
CONTINUOUS
 62
     7
 10
-48.317850140103637
 20
-59.435685070681963
 30
0.0
  0
VERTEX
  5
832
  8
DATA
  6
CONTINUOUS
 62
     7
 10
-48.32506432821021
 20
-59.439359067947848
 30
0.0
  0
VERTEX
  5
833
  8
DATA
  6
CONTINUOUS
 62
     7
 10
-48.332401835771591
 20
-59.443024300959642
 30
0.0
  0
VERTEX
  5
834
  8
DATA
  6
CONTINUOUS
 62
     7
 10
-48.339862662787802
 20
-59.446680769717318
 30
0.0
  0
VERTEX
  5
835
  8
DATA
  6
CONTINUOUS
 62
     7
 10
-48.347446809258813
 20
-59.450328474220889
 30
0.0
  0
VERTEX
  5
836
  8
DATA
  6
CONTINUOUS
 62
     7
 10
-48.355154275184631
 20
-59.453967414470313
 30
0.0
  0
VERTEX
  5
837
  8
DATA
  6
CONTINUOUS
 62
     7
 10
-48.362985060565272
 20
-59.457597590465639
 30
0.0
  0
VERTEX
  5
838
  8
DATA
  6
CONTINUOUS
 62
     7
 10
-48.362985060565272
 20
-59.457597590465639
 30
0.0
  0
VERTEX
  5
839
  8
DATA
  6
CONTINUOUS
 62
     7
 10
-48.370922643726551
 20
-59.461211412140131
 30
0.0
  0
VERTEX
  5
83A
  8
DATA
  6
CONTINUOUS
 62
     7
 10
-48.378950502994321
 20
-59.464801289427093
 30
0.0
  0
VERTEX
  5
83B
  8
DATA
  6
CONTINUOUS
 62
     7
 10
-48.387068638368582
 20
-59.468367222326499
 30
0.0
  0
VERTEX
  5
83C
  8
DATA
  6
CONTINUOUS
 62
     7
 10
-48.395277049849327
 20
-59.471909210838398
 30
0.0
  0
VERTEX
  5
83D
  8
DATA
  6
CONTINUOUS
 62
     7
 10
-48.40357573743654
 20
-59.475427254962739
 30
0.0
  0
VERTEX
  5
83E
  8
DATA
  6
CONTINUOUS
 62
     7
 10
-48.411964701130252
 20
-59.478921354699537
 30
0.0
  0
VERTEX
  5
83F
  8
DATA
  6
CONTINUOUS
 62
     7
 10
-48.420443940930447
 20
-59.482391510048821
 30
0.0
  0
VERTEX
  5
840
  8
DATA
  6
CONTINUOUS
 62
     7
 10
-48.429013456837133
 20
-59.485837721010562
 30
0.0
  0
VERTEX
  5
841
  8
DATA
  6
CONTINUOUS
 62
     7
 10
-48.437673248850288
 20
-59.489259987584752
 30
0.0
  0
VERTEX
  5
842
  8
DATA
  6
CONTINUOUS
 62
     7
 10
-48.446423316969941
 20
-59.4926583097714
 30
0.0
  0
VERTEX
  5
843
  8
DATA
  6
CONTINUOUS
 62
     7
 10
-48.455263661196071
 20
-59.496032687570533
 30
0.0
  0
VERTEX
  5
844
  8
DATA
  6
CONTINUOUS
 62
     7
 10
-48.464194281528712
 20
-59.49938312098211
 30
0.0
  0
VERTEX
  5
845
  8
DATA
  6
CONTINUOUS
 62
     7
 10
-48.473215177967788
 20
-59.502709610006157
 30
0.0
  0
VERTEX
  5
846
  8
DATA
  6
CONTINUOUS
 62
     7
 10
-48.482326350513397
 20
-59.506012154642661
 30
0.0
  0
VERTEX
  5
847
  8
DATA
  6
CONTINUOUS
 62
     7
 10
-48.491527799165468
 20
-59.509290754891637
 30
0.0
  0
VERTEX
  5
848
  8
DATA
  6
CONTINUOUS
 62
     7
 10
-48.500819523924037
 20
-59.51254541075307
 30
0.0
  0
VERTEX
  5
849
  8
DATA
  6
CONTINUOUS
 62
     7
 10
-48.510201524789068
 20
-59.515776122226967
 30
0.0
  0
VERTEX
  5
84A
  8
DATA
  6
CONTINUOUS
 62
     7
 10
-48.519673801760618
 20
-59.518982889313321
 30
0.0
  0
VERTEX
  5
84B
  8
DATA
  6
CONTINUOUS
 62
     7
 10
-48.529236354838631
 20
-59.522165712012153
 30
0.0
  0
VERTEX
  5
84C
  8
DATA
  6
CONTINUOUS
 62
     7
 10
-48.538889184023141
 20
-59.525324590323443
 30
0.0
  0
VERTEX
  5
84D
  8
DATA
  6
CONTINUOUS
 62
     7
 10
-48.548632289314099
 20
-59.528459524247182
 30
0.0
  0
VERTEX
  5
84E
  8
DATA
  6
CONTINUOUS
 62
     7
 10
-48.55846567071157
 20
-59.531570513783379
 30
0.0
  0
VERTEX
  5
84F
  8
DATA
  6
CONTINUOUS
 62
     7
 10
-48.568389328215538
 20
-59.534657558932068
 30
0.0
  0
VERTEX
  5
850
  8
DATA
  6
CONTINUOUS
 62
     7
 10
-48.578403261825983
 20
-59.537720659693179
 30
0.0
  0
VERTEX
  5
851
  8
DATA
  6
CONTINUOUS
 62
     7
 10
-48.588507471542897
 20
-59.540759816066789
 30
0.0
  0
VERTEX
  5
852
  8
DATA
  6
CONTINUOUS
 62
     7
 10
-48.59870195736633
 20
-59.543775028052863
 30
0.0
  0
VERTEX
  5
853
  8
DATA
  6
CONTINUOUS
 62
     7
 10
-48.608986719296198
 20
-59.546766295651359
 30
0.0
  0
VERTEX
  5
854
  8
DATA
  6
CONTINUOUS
 62
     7
 10
-48.619361757332591
 20
-59.549733618862341
 30
0.0
  0
VERTEX
  5
855
  8
DATA
  6
CONTINUOUS
 62
     7
 10
-48.629827071475461
 20
-59.552676997685801
 30
0.0
  0
VERTEX
  5
856
  8
DATA
  6
CONTINUOUS
 62
     7
 10
-48.640382661724793
 20
-59.555596432121717
 30
0.0
  0
VERTEX
  5
857
  8
DATA
  6
CONTINUOUS
 62
     7
 10
-48.651028528080637
 20
-59.558491922170077
 30
0.0
  0
VERTEX
  5
858
  8
DATA
  6
CONTINUOUS
 62
     7
 10
-48.661764670542958
 20
-59.561363467830923
 30
0.0
  0
VERTEX
  5
859
  8
DATA
  6
CONTINUOUS
 62
     7
 10
-48.672591089111748
 20
-59.564211069104211
 30
0.0
  0
VERTEX
  5
85A
  8
DATA
  6
CONTINUOUS
 62
     7
 10
-48.68350778378705
 20
-59.56703472598997
 30
0.0
  0
VERTEX
  5
85B
  8
DATA
  6
CONTINUOUS
 62
     7
 10
-48.694514754568822
 20
-59.569834438488193
 30
0.0
  0
VERTEX
  5
85C
  8
DATA
  6
CONTINUOUS
 62
     7
 10
-48.705612001457091
 20
-59.572610206598881
 30
0.0
  0
VERTEX
  5
85D
  8
DATA
  6
CONTINUOUS
 62
     7
 10
-48.716799524451829
 20
-59.575362030322019
 30
0.0
  0
VERTEX
  5
85E
  8
DATA
  6
CONTINUOUS
 62
     7
 10
-48.728077323553052
 20
-59.578089909657642
 30
0.0
  0
VERTEX
  5
85F
  8
DATA
  6
CONTINUOUS
 62
     7
 10
-48.739445398760772
 20
-59.580793844605722
 30
0.0
  0
VERTEX
  5
860
  8
DATA
  6
CONTINUOUS
 62
     7
 10
-48.750903750074968
 20
-59.583473835166252
 30
0.0
  0
VERTEX
  5
861
  8
DATA
  6
CONTINUOUS
 62
     7
 10
-48.762452377495642
 20
-59.586129881339247
 30
0.0
  0
VERTEX
  5
862
  8
DATA
  6
CONTINUOUS
 62
     7
 10
-48.774091281022812
 20
-59.588761983124698
 30
0.0
  0
VERTEX
  5
863
  8
DATA
  6
CONTINUOUS
 62
     7
 10
-48.785820460656481
 20
-59.591370140522613
 30
0.0
  0
VERTEX
  5
864
  8
DATA
  6
CONTINUOUS
 62
     7
 10
-48.797639916396619
 20
-59.593954353533
 30
0.0
  0
VERTEX
  5
865
  8
DATA
  6
CONTINUOUS
 62
     7
 10
-48.809549648243248
 20
-59.596514622155851
 30
0.0
  0
VERTEX
  5
866
  8
DATA
  6
CONTINUOUS
 62
     7
 10
-48.821549656196339
 20
-59.599050946391174
 30
0.0
  0
VERTEX
  5
867
  8
DATA
  6
CONTINUOUS
 62
     7
 10
-48.833639940255928
 20
-59.601563326238953
 30
0.0
  0
VERTEX
  5
868
  8
DATA
  6
CONTINUOUS
 62
     7
 10
-48.845820500422022
 20
-59.604051761699182
 30
0.0
  0
VERTEX
  5
869
  8
DATA
  6
CONTINUOUS
 62
     7
 10
-48.858091336694571
 20
-59.606516252771883
 30
0.0
  0
VERTEX
  5
86A
  8
DATA
  6
CONTINUOUS
 62
     7
 10
-48.870452449073639
 20
-59.60895679945704
 30
0.0
  0
VERTEX
  5
86B
  8
DATA
  6
CONTINUOUS
 62
     7
 10
-48.882903837559176
 20
-59.611373401754648
 30
0.0
  0
VERTEX
  5
86C
  8
DATA
  6
CONTINUOUS
 62
     7
 10
-48.895445502151183
 20
-59.613766059664748
 30
0.0
  0
VERTEX
  5
86D
  8
DATA
  6
CONTINUOUS
 62
     7
 10
-48.908077442849681
 20
-59.616134773187291
 30
0.0
  0
VERTEX
  5
86E
  8
DATA
  6
CONTINUOUS
 62
     7
 10
-48.920799659654683
 20
-59.618479542322312
 30
0.0
  0
VERTEX
  5
86F
  8
DATA
  6
CONTINUOUS
 62
     7
 10
-48.933612152566141
 20
-59.620800367069783
 30
0.0
  0
VERTEX
  5
870
  8
DATA
  6
CONTINUOUS
 62
     7
 10
-48.946514921584111
 20
-59.623097247429712
 30
0.0
  0
VERTEX
  5
871
  8
DATA
  6
CONTINUOUS
 62
     7
 10
-48.959507966708557
 20
-59.625370183402119
 30
0.0
  0
VERTEX
  5
872
  8
DATA
  6
CONTINUOUS
 62
     7
 10
-48.972591287939473
 20
-59.627619174986968
 30
0.0
  0
VERTEX
  5
873
  8
DATA
  6
CONTINUOUS
 62
     7
 10
-48.985764885276893
 20
-59.629844222184317
 30
0.0
  0
VERTEX
  5
874
  8
DATA
  6
CONTINUOUS
 62
     7
 10
-48.99902875872079
 20
-59.632045324994102
 30
0.0
  0
VERTEX
  5
875
  8
DATA
  6
CONTINUOUS
 62
     7
 10
-49.012382908271171
 20
-59.634222483416337
 30
0.0
  0
VERTEX
  5
876
  8
DATA
  6
CONTINUOUS
 62
     7
 10
-49.025827333928042
 20
-59.636375697451058
 30
0.0
  0
VERTEX
  5
877
  8
DATA
  6
CONTINUOUS
 62
     7
 10
-49.039362035691383
 20
-59.638504967098228
 30
0.0
  0
VERTEX
  5
878
  8
DATA
  6
CONTINUOUS
 62
     7
 10
-49.052987013561221
 20
-59.640610292357863
 30
0.0
  0
VERTEX
  5
879
  8
DATA
  6
CONTINUOUS
 62
     7
 10
-49.052987013561221
 20
-59.640610292357863
 30
0.0
  0
VERTEX
  5
87A
  8
DATA
  6
CONTINUOUS
 62
     7
 10
-49.066673651158467
 20
-59.642687291102902
 30
0.0
  0
VERTEX
  5
87B
  8
DATA
  6
CONTINUOUS
 62
     7
 10
-49.080393332104038
 20
-59.644731581206287
 30
0.0
  0
VERTEX
  5
87C
  8
DATA
  6
CONTINUOUS
 62
     7
 10
-49.094146056397932
 20
-59.646743162668031
 30
0.0
  0
VERTEX
  5
87D
  8
DATA
  6
CONTINUOUS
 62
     7
 10
-49.107931824040172
 20
-59.648722035488099
 30
0.0
  0
VERTEX
  5
87E
  8
DATA
  6
CONTINUOUS
 62
     7
 10
-49.121750635030729
 20
-59.650668199666519
 30
0.0
  0
VERTEX
  5
87F
  8
DATA
  6
CONTINUOUS
 62
     7
 10
-49.135602489369617
 20
-59.652581655203278
 30
0.0
  0
VERTEX
  5
880
  8
DATA
  6
CONTINUOUS
 62
     7
 10
-49.14948738705683
 20
-59.65446240209841
 30
0.0
  0
VERTEX
  5
881
  8
DATA
  6
CONTINUOUS
 62
     7
 10
-49.16340532809236
 20
-59.656310440351866
 30
0.0
  0
VERTEX
  5
882
  8
DATA
  6
CONTINUOUS
 62
     7
 10
-49.177356312476242
 20
-59.658125769963682
 30
0.0
  0
VERTEX
  5
883
  8
DATA
  6
CONTINUOUS
 62
     7
 10
-49.19134034020842
 20
-59.65990839093385
 30
0.0
  0
VERTEX
  5
884
  8
DATA
  6
CONTINUOUS
 62
     7
 10
-49.205357411288958
 20
-59.66165830326235
 30
0.0
  0
VERTEX
  5
885
  8
DATA
  6
CONTINUOUS
 62
     7
 10
-49.219407525717813
 20
-59.66337550694918
 30
0.0
  0
VERTEX
  5
886
  8
DATA
  6
CONTINUOUS
 62
     7
 10
-49.233490683494999
 20
-59.66506000199437
 30
0.0
  0
VERTEX
  5
887
  8
DATA
  6
CONTINUOUS
 62
     7
 10
-49.247606884620502
 20
-59.666711788397897
 30
0.0
  0
VERTEX
  5
888
  8
DATA
  6
CONTINUOUS
 62
     7
 10
-49.261756129094351
 20
-59.668330866159778
 30
0.0
  0
VERTEX
  5
889
  8
DATA
  6
CONTINUOUS
 62
     7
 10
-49.275938416916532
 20
-59.669917235280018
 30
0.0
  0
VERTEX
  5
88A
  8
DATA
  6
CONTINUOUS
 62
     7
 10
-49.290153748087022
 20
-59.671470895758603
 30
0.0
  0
VERTEX
  5
88B
  8
DATA
  6
CONTINUOUS
 62
     7
 10
-49.30440212260585
 20
-59.672991847595512
 30
0.0
  0
VERTEX
  5
88C
  8
DATA
  6
CONTINUOUS
 62
     7
 10
-49.318683540472968
 20
-59.67448009079078
 30
0.0
  0
VERTEX
  5
88D
  8
DATA
  6
CONTINUOUS
 62
     7
 10
-49.332998001688473
 20
-59.675935625344387
 30
0.0
  0
VERTEX
  5
88E
  8
DATA
  6
CONTINUOUS
 62
     7
 10
-49.347345506252282
 20
-59.677358451256339
 30
0.0
  0
VERTEX
  5
88F
  8
DATA
  6
CONTINUOUS
 62
     7
 10
-49.361726054164421
 20
-59.678748568526643
 30
0.0
  0
VERTEX
  5
890
  8
DATA
  6
CONTINUOUS
 62
     7
 10
-49.376139645424892
 20
-59.680105977155293
 30
0.0
  0
VERTEX
  5
891
  8
DATA
  6
CONTINUOUS
 62
     7
 10
-49.390586280033681
 20
-59.681430677142288
 30
0.0
  0
VERTEX
  5
892
  8
DATA
  6
CONTINUOUS
 62
     7
 10
-49.405065957990807
 20
-59.682722668487607
 30
0.0
  0
VERTEX
  5
893
  8
DATA
  6
CONTINUOUS
 62
     7
 10
-49.419578679296258
 20
-59.683981951191321
 30
0.0
  0
VERTEX
  5
894
  8
DATA
  6
CONTINUOUS
 62
     7
 10
-49.434124443950033
 20
-59.685208525253337
 30
0.0
  0
VERTEX
  5
895
  8
DATA
  6
CONTINUOUS
 62
     7
 10
-49.448703251952139
 20
-59.68640239067372
 30
0.0
  0
VERTEX
  5
896
  8
DATA
  6
CONTINUOUS
 62
     7
 10
-49.46331510330257
 20
-59.687563547452442
 30
0.0
  0
VERTEX
  5
897
  8
DATA
  6
CONTINUOUS
 62
     7
 10
-49.477959998001353
 20
-59.688691995589522
 30
0.0
  0
VERTEX
  5
898
  8
DATA
  6
CONTINUOUS
 62
     7
 10
-49.492637936048432
 20
-59.689787735084927
 30
0.0
  0
VERTEX
  5
899
  8
DATA
  6
CONTINUOUS
 62
     7
 10
-49.507348917443849
 20
-59.690850765938691
 30
0.0
  0
VERTEX
  5
89A
  8
DATA
  6
CONTINUOUS
 62
     7
 10
-49.522092942187612
 20
-59.691881088150787
 30
0.0
  0
VERTEX
  5
89B
  8
DATA
  6
CONTINUOUS
 62
     7
 10
-49.536870010279678
 20
-59.692878701721249
 30
0.0
  0
VERTEX
  5
89C
  8
DATA
  6
CONTINUOUS
 62
     7
 10
-49.551680121720068
 20
-59.693843606650049
 30
0.0
  0
VERTEX
  5
89D
  8
DATA
  6
CONTINUOUS
 62
     7
 10
-49.566523276508789
 20
-59.694775802937187
 30
0.0
  0
VERTEX
  5
89E
  8
DATA
  6
CONTINUOUS
 62
     7
 10
-49.581399474645863
 20
-59.69567529058267
 30
0.0
  0
VERTEX
  5
89F
  8
DATA
  6
CONTINUOUS
 62
     7
 10
-49.596308716131247
 20
-59.696542069586513
 30
0.0
  0
VERTEX
  5
8A0
  8
DATA
  6
CONTINUOUS
 62
     7
 10
-49.611251000964963
 20
-59.697376139948702
 30
0.0
  0
VERTEX
  5
8A1
  8
DATA
  6
CONTINUOUS
 62
     7
 10
-49.626226329147023
 20
-59.698177501669207
 30
0.0
  0
VERTEX
  5
8A2
  8
DATA
  6
CONTINUOUS
 62
     7
 10
-49.641234700677401
 20
-59.6989461547481
 30
0.0
  0
VERTEX
  5
8A3
  8
DATA
  6
CONTINUOUS
 62
     7
 10
-49.656276115556103
 20
-59.699682099185317
 30
0.0
  0
VERTEX
  5
8A4
  8
DATA
  6
CONTINUOUS
 62
     7
 10
-49.671350573783123
 20
-59.700385334980901
 30
0.0
  0
VERTEX
  5
8A5
  8
DATA
  6
CONTINUOUS
 62
     7
 10
-49.686458075358473
 20
-59.701055862134801
 30
0.0
  0
VERTEX
  5
8A6
  8
DATA
  6
CONTINUOUS
 62
     7
 10
-49.701598620282176
 20
-59.701693680647061
 30
0.0
  0
VERTEX
  5
8A7
  8
DATA
  6
CONTINUOUS
 62
     7
 10
-49.716772208554183
 20
-59.702298790517652
 30
0.0
  0
VERTEX
  5
8A8
  8
DATA
  6
CONTINUOUS
 62
     7
 10
-49.731978840174527
 20
-59.70287119174661
 30
0.0
  0
VERTEX
  5
8A9
  8
DATA
  6
CONTINUOUS
 62
     7
 10
-49.74721851514321
 20
-59.703410884333898
 30
0.0
  0
VERTEX
  5
8AA
  8
DATA
  6
CONTINUOUS
 62
     7
 10
-49.762491233460182
 20
-59.70391786827954
 30
0.0
  0
VERTEX
  5
8AB
  8
DATA
  6
CONTINUOUS
 62
     7
 10
-49.77779699512552
 20
-59.704392143583533
 30
0.0
  0
VERTEX
  5
8AC
  8
DATA
  6
CONTINUOUS
 62
     7
 10
-49.793135800139183
 20
-59.70483371024585
 30
0.0
  0
VERTEX
  5
8AD
  8
DATA
  6
CONTINUOUS
 62
     7
 10
-49.808507648501148
 20
-59.705242568266527
 30
0.0
  0
VERTEX
  5
8AE
  8
DATA
  6
CONTINUOUS
 62
     7
 10
-49.823912540211467
 20
-59.705618717645571
 30
0.0
  0
VERTEX
  5
8AF
  8
DATA
  6
CONTINUOUS
 62
     7
 10
-49.839350475270123
 20
-59.705962158382931
 30
0.0
  0
VERTEX
  5
8B0
  8
DATA
  6
CONTINUOUS
 62
     7
 10
-49.854821453677083
 20
-59.706272890478637
 30
0.0
  0
VERTEX
  5
8B1
  8
DATA
  6
CONTINUOUS
 62
     7
 10
-49.870325475432388
 20
-59.706550913932702
 30
0.0
  0
VERTEX
  5
8B2
  8
DATA
  6
CONTINUOUS
 62
     7
 10
-49.88586254053601
 20
-59.706796228745098
 30
0.0
  0
VERTEX
  5
8B3
  8
DATA
  6
CONTINUOUS
 62
     7
 10
-49.901432648987956
 20
-59.707008834915847
 30
0.0
  0
VERTEX
  5
8B4
  8
DATA
  6
CONTINUOUS
 62
     7
 10
-49.917035800788241
 20
-59.707188732444962
 30
0.0
  0
VERTEX
  5
8B5
  8
DATA
  6
CONTINUOUS
 62
     7
 10
-49.93267199593685
 20
-59.707335921332387
 30
0.0
  0
VERTEX
  5
8B6
  8
DATA
  6
CONTINUOUS
 62
     7
 10
-49.948341234433791
 20
-59.707450401578193
 30
0.0
  0
VERTEX
  5
8B7
  8
DATA
  6
CONTINUOUS
 62
     7
 10
-49.964043516279048
 20
-59.707532173182322
 30
0.0
  0
VERTEX
  5
8B8
  8
DATA
  6
CONTINUOUS
 62
     7
 10
-49.979778841472651
 20
-59.707581236144811
 30
0.0
  0
VERTEX
  5
8B9
  8
DATA
  6
CONTINUOUS
 62
     7
 10
-49.995547210014578
 20
-59.707597590465639
 30
0.0
  0
VERTEX
  5
8BA
  8
DATA
  6
CONTINUOUS
 62
     7
 10
-49.995547210014578
 20
-59.707597590465639
 30
0.0
  0
VERTEX
  5
8BB
  8
DATA
  6
CONTINUOUS
 62
     7
 10
-50.011315578556498
 20
-59.707581236144811
 30
0.0
  0
VERTEX
  5
8BC
  8
DATA
  6
CONTINUOUS
 62
     7
 10
-50.027050903750101
 20
-59.707532173182322
 30
0.0
  0
VERTEX
  5
8BD
  8
DATA
  6
CONTINUOUS
 62
     7
 10
-50.042753185595359
 20
-59.707450401578193
 30
0.0
  0
VERTEX
  5
8BE
  8
DATA
  6
CONTINUOUS
 62
     7
 10
-50.058422424092313
 20
-59.707335921332387
 30
0.0
  0
VERTEX
  5
8BF
  8
DATA
  6
CONTINUOUS
 62
     7
 10
-50.074058619240922
 20
-59.707188732444962
 30
0.0
  0
VERTEX
  5
8C0
  8
DATA
  6
CONTINUOUS
 62
     7
 10
-50.0896617710412
 20
-59.707008834915847
 30
0.0
  0
VERTEX
  5
8C1
  8
DATA
  6
CONTINUOUS
 62
     7
 10
-50.105231879493147
 20
-59.706796228745098
 30
0.0
  0
VERTEX
  5
8C2
  8
DATA
  6
CONTINUOUS
 62
     7
 10
-50.120768944596783
 20
-59.706550913932702
 30
0.0
  0
VERTEX
  5
8C3
  8
DATA
  6
CONTINUOUS
 62
     7
 10
-50.136272966352081
 20
-59.706272890478637
 30
0.0
  0
VERTEX
  5
8C4
  8
DATA
  6
CONTINUOUS
 62
     7
 10
-50.151743944759033
 20
-59.705962158382931
 30
0.0
  0
VERTEX
  5
8C5
  8
DATA
  6
CONTINUOUS
 62
     7
 10
-50.167181879817669
 20
-59.705618717645571
 30
0.0
  0
VERTEX
  5
8C6
  8
DATA
  6
CONTINUOUS
 62
     7
 10
-50.182586771527987
 20
-59.705242568266527
 30
0.0
  0
VERTEX
  5
8C7
  8
DATA
  6
CONTINUOUS
 62
     7
 10
-50.19795861988996
 20
-59.70483371024585
 30
0.0
  0
VERTEX
  5
8C8
  8
DATA
  6
CONTINUOUS
 62
     7
 10
-50.213297424903637
 20
-59.704392143583533
 30
0.0
  0
VERTEX
  5
8C9
  8
DATA
  6
CONTINUOUS
 62
     7
 10
-50.228603186568961
 20
-59.70391786827954
 30
0.0
  0
VERTEX
  5
8CA
  8
DATA
  6
CONTINUOUS
 62
     7
 10
-50.243875904885961
 20
-59.703410884333898
 30
0.0
  0
VERTEX
  5
8CB
  8
DATA
  6
CONTINUOUS
 62
     7
 10
-50.259115579854623
 20
-59.70287119174661
 30
0.0
  0
VERTEX
  5
8CC
  8
DATA
  6
CONTINUOUS
 62
     7
 10
-50.274322211474981
 20
-59.702298790517652
 30
0.0
  0
VERTEX
  5
8CD
  8
DATA
  6
CONTINUOUS
 62
     7
 10
-50.28949579974698
 20
-59.701693680647061
 30
0.0
  0
VERTEX
  5
8CE
  8
DATA
  6
CONTINUOUS
 62
     7
 10
-50.304636344670683
 20
-59.701055862134801
 30
0.0
  0
VERTEX
  5
8CF
  8
DATA
  6
CONTINUOUS
 62
     7
 10
-50.319743846246041
 20
-59.700385334980901
 30
0.0
  0
VERTEX
  5
8D0
  8
DATA
  6
CONTINUOUS
 62
     7
 10
-50.334818304473067
 20
-59.699682099185317
 30
0.0
  0
VERTEX
  5
8D1
  8
DATA
  6
CONTINUOUS
 62
     7
 10
-50.349859719351748
 20
-59.6989461547481
 30
0.0
  0
VERTEX
  5
8D2
  8
DATA
  6
CONTINUOUS
 62
     7
 10
-50.36486809088214
 20
-59.698177501669207
 30
0.0
  0
VERTEX
  5
8D3
  8
DATA
  6
CONTINUOUS
 62
     7
 10
-50.37984341906418
 20
-59.697376139948702
 30
0.0
  0
VERTEX
  5
8D4
  8
DATA
  6
CONTINUOUS
 62
     7
 10
-50.394785703897888
 20
-59.696542069586513
 30
0.0
  0
VERTEX
  5
8D5
  8
DATA
  6
CONTINUOUS
 62
     7
 10
-50.409694945383293
 20
-59.69567529058267
 30
0.0
  0
VERTEX
  5
8D6
  8
DATA
  6
CONTINUOUS
 62
     7
 10
-50.42457114352036
 20
-59.694775802937187
 30
0.0
  0
VERTEX
  5
8D7
  8
DATA
  6
CONTINUOUS
 62
     7
 10
-50.439414298309082
 20
-59.693843606650049
 30
0.0
  0
VERTEX
  5
8D8
  8
DATA
  6
CONTINUOUS
 62
     7
 10
-50.454224409749493
 20
-59.692878701721249
 30
0.0
  0
VERTEX
  5
8D9
  8
DATA
  6
CONTINUOUS
 62
     7
 10
-50.469001477841573
 20
-59.691881088150787
 30
0.0
  0
VERTEX
  5
8DA
  8
DATA
  6
CONTINUOUS
 62
     7
 10
-50.483745502585307
 20
-59.690850765938691
 30
0.0
  0
VERTEX
  5
8DB
  8
DATA
  6
CONTINUOUS
 62
     7
 10
-50.498456483980718
 20
-59.689787735084927
 30
0.0
  0
VERTEX
  5
8DC
  8
DATA
  6
CONTINUOUS
 62
     7
 10
-50.513134422027832
 20
-59.688691995589522
 30
0.0
  0
VERTEX
  5
8DD
  8
DATA
  6
CONTINUOUS
 62
     7
 10
-50.527779316726573
 20
-59.687563547452442
 30
0.0
  0
VERTEX
  5
8DE
  8
DATA
  6
CONTINUOUS
 62
     7
 10
-50.542391168077032
 20
-59.68640239067372
 30
0.0
  0
VERTEX
  5
8DF
  8
DATA
  6
CONTINUOUS
 62
     7
 10
-50.556969976079131
 20
-59.685208525253337
 30
0.0
  0
VERTEX
  5
8E0
  8
DATA
  6
CONTINUOUS
 62
     7
 10
-50.571515740732913
 20
-59.683981951191321
 30
0.0
  0
VERTEX
  5
8E1
  8
DATA
  6
CONTINUOUS
 62
     7
 10
-50.586028462038357
 20
-59.682722668487607
 30
0.0
  0
VERTEX
  5
8E2
  8
DATA
  6
CONTINUOUS
 62
     7
 10
-50.600508139995483
 20
-59.681430677142288
 30
0.0
  0
VERTEX
  5
8E3
  8
DATA
  6
CONTINUOUS
 62
     7
 10
-50.614954774604271
 20
-59.680105977155293
 30
0.0
  0
VERTEX
  5
8E4
  8
DATA
  6
CONTINUOUS
 62
     7
 10
-50.629368365864742
 20
-59.678748568526643
 30
0.0
  0
VERTEX
  5
8E5
  8
DATA
  6
CONTINUOUS
 62
     7
 10
-50.643748913776882
 20
-59.677358451256339
 30
0.0
  0
VERTEX
  5
8E6
  8
DATA
  6
CONTINUOUS
 62
     7
 10
-50.658096418340683
 20
-59.675935625344387
 30
0.0
  0
VERTEX
  5
8E7
  8
DATA
  6
CONTINUOUS
 62
     7
 10
-50.672410879556168
 20
-59.67448009079078
 30
0.0
  0
VERTEX
  5
8E8
  8
DATA
  6
CONTINUOUS
 62
     7
 10
-50.686692297423328
 20
-59.672991847595512
 30
0.0
  0
VERTEX
  5
8E9
  8
DATA
  6
CONTINUOUS
 62
     7
 10
-50.700940671942142
 20
-59.671470895758603
 30
0.0
  0
VERTEX
  5
8EA
  8
DATA
  6
CONTINUOUS
 62
     7
 10
-50.715156003112639
 20
-59.669917235280018
 30
0.0
  0
VERTEX
  5
8EB
  8
DATA
  6
CONTINUOUS
 62
     7
 10
-50.729338290934813
 20
-59.668330866159778
 30
0.0
  0
VERTEX
  5
8EC
  8
DATA
  6
CONTINUOUS
 62
     7
 10
-50.74348753540864
 20
-59.666711788397897
 30
0.0
  0
VERTEX
  5
8ED
  8
DATA
  6
CONTINUOUS
 62
     7
 10
-50.757603736534158
 20
-59.66506000199437
 30
0.0
  0
VERTEX
  5
8EE
  8
DATA
  6
CONTINUOUS
 62
     7
 10
-50.771686894311337
 20
-59.66337550694918
 30
0.0
  0
VERTEX
  5
8EF
  8
DATA
  6
CONTINUOUS
 62
     7
 10
-50.785737008740199
 20
-59.66165830326235
 30
0.0
  0
VERTEX
  5
8F0
  8
DATA
  6
CONTINUOUS
 62
     7
 10
-50.799754079820723
 20
-59.65990839093385
 30
0.0
  0
VERTEX
  5
8F1
  8
DATA
  6
CONTINUOUS
 62
     7
 10
-50.813738107552922
 20
-59.658125769963682
 30
0.0
  0
VERTEX
  5
8F2
  8
DATA
  6
CONTINUOUS
 62
     7
 10
-50.82768909193679
 20
-59.656310440351866
 30
0.0
  0
VERTEX
  5
8F3
  8
DATA
  6
CONTINUOUS
 62
     7
 10
-50.841607032972348
 20
-59.65446240209841
 30
0.0
  0
VERTEX
  5
8F4
  8
DATA
  6
CONTINUOUS
 62
     7
 10
-50.855491930659539
 20
-59.652581655203278
 30
0.0
  0
VERTEX
  5
8F5
  8
DATA
  6
CONTINUOUS
 62
     7
 10
-50.869343784998442
 20
-59.650668199666519
 30
0.0
  0
VERTEX
  5
8F6
  8
DATA
  6
CONTINUOUS
 62
     7
 10
-50.883162595988992
 20
-59.648722035488099
 30
0.0
  0
VERTEX
  5
8F7
  8
DATA
  6
CONTINUOUS
 62
     7
 10
-50.896948363631218
 20
-59.646743162668031
 30
0.0
  0
VERTEX
  5
8F8
  8
DATA
  6
CONTINUOUS
 62
     7
 10
-50.910701087925119
 20
-59.644731581206287
 30
0.0
  0
VERTEX
  5
8F9
  8
DATA
  6
CONTINUOUS
 62
     7
 10
-50.924420768870689
 20
-59.642687291102902
 30
0.0
  0
VERTEX
  5
8FA
  8
DATA
  6
CONTINUOUS
 62
     7
 10
-50.938107406467942
 20
-59.640610292357863
 30
0.0
  0
VERTEX
  5
8FB
  8
DATA
  6
CONTINUOUS
 62
     7
 10
-50.938107406467942
 20
-59.640610292357863
 30
0.0
  0
VERTEX
  5
8FC
  8
DATA
  6
CONTINUOUS
 62
     7
 10
-50.951732384337781
 20
-59.638504967098228
 30
0.0
  0
VERTEX
  5
8FD
  8
DATA
  6
CONTINUOUS
 62
     7
 10
-50.965267086101122
 20
-59.636375697451058
 30
0.0
  0
VERTEX
  5
8FE
  8
DATA
  6
CONTINUOUS
 62
     7
 10
-50.978711511757993
 20
-59.634222483416337
 30
0.0
  0
VERTEX
  5
8FF
  8
DATA
  6
CONTINUOUS
 62
     7
 10
-50.992065661308366
 20
-59.632045324994102
 30
0.0
  0
VERTEX
  5
900
  8
DATA
  6
CONTINUOUS
 62
     7
 10
-51.005329534752278
 20
-59.629844222184317
 30
0.0
  0
VERTEX
  5
901
  8
DATA
  6
CONTINUOUS
 62
     7
 10
-51.018503132089691
 20
-59.627619174986968
 30
0.0
  0
VERTEX
  5
902
  8
DATA
  6
CONTINUOUS
 62
     7
 10
-51.031586453320607
 20
-59.625370183402119
 30
0.0
  0
VERTEX
  5
903
  8
DATA
  6
CONTINUOUS
 62
     7
 10
-51.04457949844506
 20
-59.623097247429712
 30
0.0
  0
VERTEX
  5
904
  8
DATA
  6
CONTINUOUS
 62
     7
 10
-51.057482267463023
 20
-59.620800367069783
 30
0.0
  0
VERTEX
  5
905
  8
DATA
  6
CONTINUOUS
 62
     7
 10
-51.070294760374502
 20
-59.618479542322312
 30
0.0
  0
VERTEX
  5
906
  8
DATA
  6
CONTINUOUS
 62
     7
 10
-51.083016977179483
 20
-59.616134773187291
 30
0.0
  0
VERTEX
  5
907
  8
DATA
  6
CONTINUOUS
 62
     7
 10
-51.09564891787798
 20
-59.613766059664748
 30
0.0
  0
VERTEX
  5
908
  8
DATA
  6
CONTINUOUS
 62
     7
 10
-51.108190582469987
 20
-59.611373401754648
 30
0.0
  0
VERTEX
  5
909
  8
DATA
  6
CONTINUOUS
 62
     7
 10
-51.120641970955532
 20
-59.60895679945704
 30
0.0
  0
VERTEX
  5
90A
  8
DATA
  6
CONTINUOUS
 62
     7
 10
-51.133003083334579
 20
-59.606516252771883
 30
0.0
  0
VERTEX
  5
90B
  8
DATA
  6
CONTINUOUS
 62
     7
 10
-51.145273919607142
 20
-59.604051761699182
 30
0.0
  0
VERTEX
  5
90C
  8
DATA
  6
CONTINUOUS
 62
     7
 10
-51.15745447977325
 20
-59.601563326238953
 30
0.0
  0
VERTEX
  5
90D
  8
DATA
  6
CONTINUOUS
 62
     7
 10
-51.16954476383281
 20
-59.599050946391174
 30
0.0
  0
VERTEX
  5
90E
  8
DATA
  6
CONTINUOUS
 62
     7
 10
-51.18154477178593
 20
-59.596514622155851
 30
0.0
  0
VERTEX
  5
90F
  8
DATA
  6
CONTINUOUS
 62
     7
 10
-51.193454503632552
 20
-59.593954353533
 30
0.0
  0
VERTEX
  5
910
  8
DATA
  6
CONTINUOUS
 62
     7
 10
-51.20527395937269
 20
-59.591370140522613
 30
0.0
  0
VERTEX
  5
911
  8
DATA
  6
CONTINUOUS
 62
     7
 10
-51.217003139006337
 20
-59.588761983124698
 30
0.0
  0
VERTEX
  5
912
  8
DATA
  6
CONTINUOUS
 62
     7
 10
-51.228642042533522
 20
-59.586129881339247
 30
0.0
  0
VERTEX
  5
913
  8
DATA
  6
CONTINUOUS
 62
     7
 10
-51.240190669954202
 20
-59.583473835166252
 30
0.0
  0
VERTEX
  5
914
  8
DATA
  6
CONTINUOUS
 62
     7
 10
-51.251649021268378
 20
-59.580793844605722
 30
0.0
  0
VERTEX
  5
915
  8
DATA
  6
CONTINUOUS
 62
     7
 10
-51.263017096476091
 20
-59.578089909657642
 30
0.0
  0
VERTEX
  5
916
  8
DATA
  6
CONTINUOUS
 62
     7
 10
-51.274294895577327
 20
-59.575362030322019
 30
0.0
  0
VERTEX
  5
917
  8
DATA
  6
CONTINUOUS
 62
     7
 10
-51.285482418572073
 20
-59.572610206598881
 30
0.0
  0
VERTEX
  5
918
  8
DATA
  6
CONTINUOUS
 62
     7
 10
-51.296579665460349
 20
-59.569834438488193
 30
0.0
  0
VERTEX
  5
919
  8
DATA
  6
CONTINUOUS
 62
     7
 10
-51.307586636242107
 20
-59.56703472598997
 30
0.0
  0
VERTEX
  5
91A
  8
DATA
  6
CONTINUOUS
 62
     7
 10
-51.318503330917402
 20
-59.564211069104211
 30
0.0
  0
VERTEX
  5
91B
  8
DATA
  6
CONTINUOUS
 62
     7
 10
-51.329329749486199
 20
-59.561363467830923
 30
0.0
  0
VERTEX
  5
91C
  8
DATA
  6
CONTINUOUS
 62
     7
 10
-51.340065891948527
 20
-59.558491922170077
 30
0.0
  0
VERTEX
  5
91D
  8
DATA
  6
CONTINUOUS
 62
     7
 10
-51.350711758304357
 20
-59.555596432121717
 30
0.0
  0
VERTEX
  5
91E
  8
DATA
  6
CONTINUOUS
 62
     7
 10
-51.361267348553717
 20
-59.552676997685801
 30
0.0
  0
VERTEX
  5
91F
  8
DATA
  6
CONTINUOUS
 62
     7
 10
-51.371732662696573
 20
-59.549733618862341
 30
0.0
  0
VERTEX
  5
920
  8
DATA
  6
CONTINUOUS
 62
     7
 10
-51.382107700732959
 20
-59.546766295651359
 30
0.0
  0
VERTEX
  5
921
  8
DATA
  6
CONTINUOUS
 62
     7
 10
-51.392392462662848
 20
-59.543775028052863
 30
0.0
  0
VERTEX
  5
922
  8
DATA
  6
CONTINUOUS
 62
     7
 10
-51.402586948486253
 20
-59.540759816066789
 30
0.0
  0
VERTEX
  5
923
  8
DATA
  6
CONTINUOUS
 62
     7
 10
-51.412691158203181
 20
-59.537720659693179
 30
0.0
  0
VERTEX
  5
924
  8
DATA
  6
CONTINUOUS
 62
     7
 10
-51.422705091813611
 20
-59.534657558932068
 30
0.0
  0
VERTEX
  5
925
  8
DATA
  6
CONTINUOUS
 62
     7
 10
-51.432628749317573
 20
-59.531570513783379
 30
0.0
  0
VERTEX
  5
926
  8
DATA
  6
CONTINUOUS
 62
     7
 10
-51.442462130715043
 20
-59.528459524247182
 30
0.0
  0
VERTEX
  5
927
  8
DATA
  6
CONTINUOUS
 62
     7
 10
-51.45220523600603
 20
-59.525324590323443
 30
0.0
  0
VERTEX
  5
928
  8
DATA
  6
CONTINUOUS
 62
     7
 10
-51.461858065190533
 20
-59.522165712012153
 30
0.0
  0
VERTEX
  5
929
  8
DATA
  6
CONTINUOUS
 62
     7
 10
-51.471420618268539
 20
-59.518982889313321
 30
0.0
  0
VERTEX
  5
92A
  8
DATA
  6
CONTINUOUS
 62
     7
 10
-51.480892895240082
 20
-59.515776122226967
 30
0.0
  0
VERTEX
  5
92B
  8
DATA
  6
CONTINUOUS
 62
     7
 10
-51.49027489610512
 20
-59.51254541075307
 30
0.0
  0
VERTEX
  5
92C
  8
DATA
  6
CONTINUOUS
 62
     7
 10
-51.499566620863668
 20
-59.509290754891637
 30
0.0
  0
VERTEX
  5
92D
  8
DATA
  6
CONTINUOUS
 62
     7
 10
-51.50876806951576
 20
-59.506012154642661
 30
0.0
  0
VERTEX
  5
92E
  8
DATA
  6
CONTINUOUS
 62
     7
 10
-51.517879242061362
 20
-59.502709610006157
 30
0.0
  0
VERTEX
  5
92F
  8
DATA
  6
CONTINUOUS
 62
     7
 10
-51.526900138500451
 20
-59.49938312098211
 30
0.0
  0
VERTEX
  5
930
  8
DATA
  6
CONTINUOUS
 62
     7
 10
-51.535830758833072
 20
-59.496032687570533
 30
0.0
  0
VERTEX
  5
931
  8
DATA
  6
CONTINUOUS
 62
     7
 10
-51.544671103059223
 20
-59.4926583097714
 30
0.0
  0
VERTEX
  5
932
  8
DATA
  6
CONTINUOUS
 62
     7
 10
-51.553421171178861
 20
-59.489259987584752
 30
0.0
  0
VERTEX
  5
933
  8
DATA
  6
CONTINUOUS
 62
     7
 10
-51.562080963192017
 20
-59.485837721010562
 30
0.0
  0
VERTEX
  5
934
  8
DATA
  6
CONTINUOUS
 62
     7
 10
-51.570650479098703
 20
-59.482391510048821
 30
0.0
  0
VERTEX
  5
935
  8
DATA
  6
CONTINUOUS
 62
     7
 10
-51.579129718898891
 20
-59.478921354699537
 30
0.0
  0
VERTEX
  5
936
  8
DATA
  6
CONTINUOUS
 62
     7
 10
-51.587518682592609
 20
-59.475427254962739
 30
0.0
  0
VERTEX
  5
937
  8
DATA
  6
CONTINUOUS
 62
     7
 10
-51.595817370179823
 20
-59.471909210838398
 30
0.0
  0
VERTEX
  5
938
  8
DATA
  6
CONTINUOUS
 62
     7
 10
-51.604025781660567
 20
-59.468367222326499
 30
0.0
  0
VERTEX
  5
939
  8
DATA
  6
CONTINUOUS
 62
     7
 10
-51.612143917034842
 20
-59.464801289427093
 30
0.0
  0
VERTEX
  5
93A
  8
DATA
  6
CONTINUOUS
 62
     7
 10
-51.620171776302612
 20
-59.461211412140131
 30
0.0
  0
VERTEX
  5
93B
  8
DATA
  6
CONTINUOUS
 62
     7
 10
-51.628109359463892
 20
-59.457597590465639
 30
0.0
  0
VERTEX
  5
93C
  8
DATA
  6
CONTINUOUS
 62
     7
 10
-51.628109359463892
 20
-59.457597590465639
 30
0.0
  0
VERTEX
  5
93D
  8
DATA
  6
CONTINUOUS
 62
     7
 10
-51.635940144844533
 20
-59.453967414470313
 30
0.0
  0
VERTEX
  5
93E
  8
DATA
  6
CONTINUOUS
 62
     7
 10
-51.643647610770351
 20
-59.450328474220889
 30
0.0
  0
VERTEX
  5
93F
  8
DATA
  6
CONTINUOUS
 62
     7
 10
-51.651231757241362
 20
-59.446680769717318
 30
0.0
  0
VERTEX
  5
940
  8
DATA
  6
CONTINUOUS
 62
     7
 10
-51.658692584257572
 20
-59.443024300959642
 30
0.0
  0
VERTEX
  5
941
  8
DATA
  6
CONTINUOUS
 62
     7
 10
-51.666030091818953
 20
-59.439359067947848
 30
0.0
  0
VERTEX
  5
942
  8
DATA
  6
CONTINUOUS
 62
     7
 10
-51.673244279925498
 20
-59.435685070681963
 30
0.0
  0
VERTEX
  5
943
  8
DATA
  6
CONTINUOUS
 62
     7
 10
-51.680335148577271
 20
-59.43200230916193
 30
0.0
  0
VERTEX
  5
944
  8
DATA
  6
CONTINUOUS
 62
     7
 10
-51.687302697774221
 20
-59.428310783387779
 30
0.0
  0
VERTEX
  5
945
  8
DATA
  6
CONTINUOUS
 62
     7
 10
-51.694146927516357
 20
-59.42461049335953
 30
0.0
  0
VERTEX
  5
946
  8
DATA
  6
CONTINUOUS
 62
     7
 10
-51.700867837803671
 20
-59.420901439077163
 30
0.0
  0
VERTEX
  5
947
  8
DATA
  6
CONTINUOUS
 62
     7
 10
-51.707465428636183
 20
-59.417183620540648
 30
0.0
  0
VERTEX
  5
948
  8
DATA
  6
CONTINUOUS
 62
     7
 10
-51.71393970001386
 20
-59.413457037750057
 30
0.0
  0
VERTEX
  5
949
  8
DATA
  6
CONTINUOUS
 62
     7
 10
-51.72029065193675
 20
-59.409721690705339
 30
0.0
  0
VERTEX
  5
94A
  8
DATA
  6
CONTINUOUS
 62
     7
 10
-51.726518284404818
 20
-59.40597757940651
 30
0.0
  0
VERTEX
  5
94B
  8
DATA
  6
CONTINUOUS
 62
     7
 10
-51.732622597418072
 20
-59.402224703853541
 30
0.0
  0
VERTEX
  5
94C
  8
DATA
  6
CONTINUOUS
 62
     7
 10
-51.738603590976503
 20
-59.39846306404646
 30
0.0
  0
VERTEX
  5
94D
  8
DATA
  6
CONTINUOUS
 62
     7
 10
-51.74446126508014
 20
-59.394692659985282
 30
0.0
  0
VERTEX
  5
94E
  8
DATA
  6
CONTINUOUS
 62
     7
 10
-51.750195619728949
 20
-59.390913491669963
 30
0.0
  0
VERTEX
  5
94F
  8
DATA
  6
CONTINUOUS
 62
     7
 10
-51.755806654922949
 20
-59.387125559100539
 30
0.0
  0
VERTEX
  5
950
  8
DATA
  6
CONTINUOUS
 62
     7
 10
-51.761294370662128
 20
-59.383328862277011
 30
0.0
  0
VERTEX
  5
951
  8
DATA
  6
CONTINUOUS
 62
     7
 10
-51.766658766946499
 20
-59.37952340119935
 30
0.0
  0
VERTEX
  5
952
  8
DATA
  6
CONTINUOUS
 62
     7
 10
-51.771899843776083
 20
-59.37570917586757
 30
0.0
  0
VERTEX
  5
953
  8
DATA
  6
CONTINUOUS
 62
     7
 10
-51.77701760115081
 20
-59.371886186281692
 30
0.0
  0
VERTEX
  5
954
  8
DATA
  6
CONTINUOUS
 62
     7
 10
-51.78201203907075
 20
-59.368054432441681
 30
0.0
  0
VERTEX
  5
955
  8
DATA
  6
CONTINUOUS
 62
     7
 10
-51.786883157535861
 20
-59.364213914347559
 30
0.0
  0
VERTEX
  5
956
  8
DATA
  6
CONTINUOUS
 62
     7
 10
-51.791630956546172
 20
-59.360364631999317
 30
0.0
  0
VERTEX
  5
957
  8
DATA
  6
CONTINUOUS
 62
     7
 10
-51.796255436101681
 20
-59.356506585396957
 30
0.0
  0
VERTEX
  5
958
  8
DATA
  6
CONTINUOUS
 62
     7
 10
-51.800756596202348
 20
-59.352639774540471
 30
0.0
  0
VERTEX
  5
959
  8
DATA
  6
CONTINUOUS
 62
     7
 10
-51.805134436848213
 20
-59.348764199429887
 30
0.0
  0
VERTEX
  5
95A
  8
DATA
  6
CONTINUOUS
 62
     7
 10
-51.809388958039257
 20
-59.344879860065177
 30
0.0
  0
VERTEX
  5
95B
  8
DATA
  6
CONTINUOUS
 62
     7
 10
-51.813520159775507
 20
-59.340986756446362
 30
0.0
  0
VERTEX
  5
95C
  8
DATA
  6
CONTINUOUS
 62
     7
 10
-51.817528042056942
 20
-59.337084888573408
 30
0.0
  0
VERTEX
  5
95D
  8
DATA
  6
CONTINUOUS
 62
     7
 10
-51.821412604883562
 20
-59.333174256446362
 30
0.0
  0
VERTEX
  5
95E
  8
DATA
  6
CONTINUOUS
 62
     7
 10
-51.825173848255361
 20
-59.329254860065177
 30
0.0
  0
VERTEX
  5
95F
  8
DATA
  6
CONTINUOUS
 62
     7
 10
-51.828811772172358
 20
-59.325326699429901
 30
0.0
  0
VERTEX
  5
960
  8
DATA
  6
CONTINUOUS
 62
     7
 10
-51.832326376634533
 20
-59.321389774540471
 30
0.0
  0
VERTEX
  5
961
  8
DATA
  6
CONTINUOUS
 62
     7
 10
-51.835717661641887
 20
-59.317444085396957
 30
0.0
  0
VERTEX
  5
962
  8
DATA
  6
CONTINUOUS
 62
     7
 10
-51.838985627194432
 20
-59.313489631999317
 30
0.0
  0
VERTEX
  5
963
  8
DATA
  6
CONTINUOUS
 62
     7
 10
-51.84213027329217
 20
-59.309526414347573
 30
0.0
  0
VERTEX
  5
964
  8
DATA
  6
CONTINUOUS
 62
     7
 10
-51.845151599935093
 20
-59.305554432441681
 30
0.0
  0
VERTEX
  5
965
  8
DATA
  6
CONTINUOUS
 62
     7
 10
-51.848049607123201
 20
-59.301573686281692
 30
0.0
  0
VERTEX
  5
966
  8
DATA
  6
CONTINUOUS
 62
     7
 10
-51.850824294856501
 20
-59.29758417586757
 30
0.0
  0
VERTEX
  5
967
  8
DATA
  6
CONTINUOUS
 62
     7
 10
-51.853475663134972
 20
-59.29358590119935
 30
0.0
  0
VERTEX
  5
968
  8
DATA
  6
CONTINUOUS
 62
     7
 10
-51.85600371195865
 20
-59.289578862277011
 30
0.0
  0
VERTEX
  5
969
  8
DATA
  6
CONTINUOUS
 62
     7
 10
-51.858408441327512
 20
-59.285563059100539
 30
0.0
  0
VERTEX
  5
96A
  8
DATA
  6
CONTINUOUS
 62
     7
 10
-51.860689851241538
 20
-59.281538491669963
 30
0.0
  0
VERTEX
  5
96B
  8
DATA
  6
CONTINUOUS
 62
     7
 10
-51.862847941700778
 20
-59.277505159985282
 30
0.0
  0
VERTEX
  5
96C
  8
DATA
  6
CONTINUOUS
 62
     7
 10
-51.864882712705203
 20
-59.273463064046467
 30
0.0
  0
VERTEX
  5
96D
  8
DATA
  6
CONTINUOUS
 62
     7
 10
-51.866794164254799
 20
-59.269412203853541
 30
0.0
  0
VERTEX
  5
96E
  8
DATA
  6
CONTINUOUS
 62
     7
 10
-51.868582296349601
 20
-59.265352579406503
 30
0.0
  0
VERTEX
  5
96F
  8
DATA
  6
CONTINUOUS
 62
     7
 10
-51.870247108989581
 20
-59.261284190705346
 30
0.0
  0
VERTEX
  5
970
  8
DATA
  6
CONTINUOUS
 62
     7
 10
-51.871788602174739
 20
-59.257207037750057
 30
0.0
  0
VERTEX
  5
971
  8
DATA
  6
CONTINUOUS
 62
     7
 10
-51.873206775905103
 20
-59.253121120540648
 30
0.0
  0
VERTEX
  5
972
  8
DATA
  6
CONTINUOUS
 62
     7
 10
-51.874501630180639
 20
-59.249026439077149
 30
0.0
  0
VERTEX
  5
973
  8
DATA
  6
CONTINUOUS
 62
     7
 10
-51.875673165001359
 20
-59.244922993359538
 30
0.0
  0
VERTEX
  5
974
  8
DATA
  6
CONTINUOUS
 62
     7
 10
-51.876721380367272
 20
-59.240810783387793
 30
0.0
  0
VERTEX
  5
975
  8
DATA
  6
CONTINUOUS
 62
     7
 10
-51.877646276278369
 20
-59.23668980916193
 30
0.0
  0
VERTEX
  5
976
  8
DATA
  6
CONTINUOUS
 62
     7
 10
-51.878447852734652
 20
-59.232560070681963
 30
0.0
  0
VERTEX
  5
977
  8
DATA
  6
CONTINUOUS
 62
     7
 10
-51.879126109736127
 20
-59.228421567947862
 30
0.0
  0
VERTEX
  5
978
  8
DATA
  6
CONTINUOUS
 62
     7
 10
-51.879681047282787
 20
-59.224274300959642
 30
0.0
  0
VERTEX
  5
979
  8
DATA
  6
CONTINUOUS
 62
     7
 10
-51.880112665374632
 20
-59.220118269717318
 30
0.0
  0
VERTEX
  5
97A
  8
DATA
  6
CONTINUOUS
 62
     7
 10
-51.880420964011662
 20
-59.215953474220889
 30
0.0
  0
VERTEX
  5
97B
  8
DATA
  6
CONTINUOUS
 62
     7
 10
-51.880605943193892
 20
-59.211779914470313
 30
0.0
  0
VERTEX
  5
97C
  8
DATA
  6
CONTINUOUS
 62
     7
 10
-51.880667602921278
 20
-59.207597590465639
 30
0.0
  0
VERTEX
  5
97D
  8
DATA
  6
CONTINUOUS
 62
     7
 10
-51.880667602921278
 20
-59.207597590465639
 30
0.0
  0
SEQEND
  5
97E
  8
DATA
  6
CONTINUOUS
 62
     7
  0
POLYLINE
  5
28E
  8
DATA
  6
CONTINUOUS
 62
     7
 66
     1
 10
0.0
 20
0.0
 30
0.0
 70
   128
  0
VERTEX
  5
97F
  8
DATA
  6
CONTINUOUS
 62
     7
 10
-49.597547535185768
 20
-39.595281477600409
 30
0.0
  0
VERTEX
  5
980
  8
DATA
  6
CONTINUOUS
 62
     7
 10
-49.588670226746039
 20
-39.594771259690432
 30
0.0
  0
VERTEX
  5
981
  8
DATA
  6
CONTINUOUS
 62
     7
 10
-49.579804618315528
 20
-39.594249460284402
 30
0.0
  0
VERTEX
  5
982
  8
DATA
  6
CONTINUOUS
 62
     7
 10
-49.570950709894149
 20
-39.593716079382347
 30
0.0
  0
VERTEX
  5
983
  8
DATA
  6
CONTINUOUS
 62
     7
 10
-49.562108501482001
 20
-39.593171116984252
 30
0.0
  0
VERTEX
  5
984
  8
DATA
  6
CONTINUOUS
 62
     7
 10
-49.553277993079028
 20
-39.592614573090117
 30
0.0
  0
VERTEX
  5
985
  8
DATA
  6
CONTINUOUS
 62
     7
 10
-49.544459184685238
 20
-39.592046447699929
 30
0.0
  0
VERTEX
  5
986
  8
DATA
  6
CONTINUOUS
 62
     7
 10
-49.535652076300629
 20
-39.591466740813722
 30
0.0
  0
VERTEX
  5
987
  8
DATA
  6
CONTINUOUS
 62
     7
 10
-49.526856667925223
 20
-39.590875452431447
 30
0.0
  0
VERTEX
  5
988
  8
DATA
  6
CONTINUOUS
 62
     7
 10
-49.518072959558971
 20
-39.590272582553169
 30
0.0
  0
VERTEX
  5
989
  8
DATA
  6
CONTINUOUS
 62
     7
 10
-49.509300951201922
 20
-39.589658131178851
 30
0.0
  0
VERTEX
  5
98A
  8
DATA
  6
CONTINUOUS
 62
     7
 10
-49.500540642854062
 20
-39.589032098308472
 30
0.0
  0
VERTEX
  5
98B
  8
DATA
  6
CONTINUOUS
 62
     7
 10
-49.49179203451537
 20
-39.588394483942047
 30
0.0
  0
VERTEX
  5
98C
  8
DATA
  6
CONTINUOUS
 62
     7
 10
-49.483055126185867
 20
-39.587745288079603
 30
0.0
  0
VERTEX
  5
98D
  8
DATA
  6
CONTINUOUS
 62
     7
 10
-49.474329917865568
 20
-39.587084510721091
 30
0.0
  0
VERTEX
  5
98E
  8
DATA
  6
CONTINUOUS
 62
     7
 10
-49.465616409554443
 20
-39.586412151866568
 30
0.0
  0
VERTEX
  5
98F
  8
DATA
  6
CONTINUOUS
 62
     7
 10
-49.456914601252493
 20
-39.585728211515999
 30
0.0
  0
VERTEX
  5
990
  8
DATA
  6
CONTINUOUS
 62
     7
 10
-49.448224492959739
 20
-39.58503268966939
 30
0.0
  0
VERTEX
  5
991
  8
DATA
  6
CONTINUOUS
 62
     7
 10
-49.439546084676181
 20
-39.584325586326742
 30
0.0
  0
VERTEX
  5
992
  8
DATA
  6
CONTINUOUS
 62
     7
 10
-49.430879376401791
 20
-39.583606901488047
 30
0.0
  0
VERTEX
  5
993
  8
DATA
  6
CONTINUOUS
 62
     7
 10
-49.422224368136597
 20
-39.582876635153333
 30
0.0
  0
VERTEX
  5
994
  8
DATA
  6
CONTINUOUS
 62
     7
 10
-49.413581059880578
 20
-39.582134787322573
 30
0.0
  0
VERTEX
  5
995
  8
DATA
  6
CONTINUOUS
 62
     7
 10
-49.404949451633762
 20
-39.581381357995753
 30
0.0
  0
VERTEX
  5
996
  8
DATA
  6
CONTINUOUS
 62
     7
 10
-49.396329543396106
 20
-39.580616347172914
 30
0.0
  0
VERTEX
  5
997
  8
DATA
  6
CONTINUOUS
 62
     7
 10
-49.387721335167647
 20
-39.579839754854007
 30
0.0
  0
VERTEX
  5
998
  8
DATA
  6
CONTINUOUS
 62
     7
 10
-49.379124826948377
 20
-39.579051581039103
 30
0.0
  0
VERTEX
  5
999
  8
DATA
  6
CONTINUOUS
 62
     7
 10
-49.370540018738289
 20
-39.578251825728138
 30
0.0
  0
VERTEX
  5
99A
  8
DATA
  6
CONTINUOUS
 62
     7
 10
-49.361966910537397
 20
-39.577440488921127
 30
0.0
  0
VERTEX
  5
99B
  8
DATA
  6
CONTINUOUS
 62
     7
 10
-49.353405502345673
 20
-39.576617570618083
 30
0.0
  0
VERTEX
  5
99C
  8
DATA
  6
CONTINUOUS
 62
     7
 10
-49.344855794163152
 20
-39.575783070819
 30
0.0
  0
VERTEX
  5
99D
  8
DATA
  6
CONTINUOUS
 62
     7
 10
-49.336317785989799
 20
-39.574936989523891
 30
0.0
  0
VERTEX
  5
99E
  8
DATA
  6
CONTINUOUS
 62
     7
 10
-49.327791477825642
 20
-39.574079326732722
 30
0.0
  0
VERTEX
  5
99F
  8
DATA
  6
CONTINUOUS
 62
     7
 10
-49.319276869670659
 20
-39.573210082445513
 30
0.0
  0
VERTEX
  5
9A0
  8
DATA
  6
CONTINUOUS
 62
     7
 10
-49.310773961524859
 20
-39.572329256662272
 30
0.0
  0
VERTEX
  5
9A1
  8
DATA
  6
CONTINUOUS
 62
     7
 10
-49.302282753388262
 20
-39.571436849382991
 30
0.0
  0
VERTEX
  5
9A2
  8
DATA
  6
CONTINUOUS
 62
     7
 10
-49.293803245260847
 20
-39.570532860607671
 30
0.0
  0
VERTEX
  5
9A3
  8
DATA
  6
CONTINUOUS
 62
     7
 10
-49.285335437142606
 20
-39.569617290336318
 30
0.0
  0
VERTEX
  5
9A4
  8
DATA
  6
CONTINUOUS
 62
     7
 10
-49.276879329033562
 20
-39.568690138568932
 30
0.0
  0
VERTEX
  5
9A5
  8
DATA
  6
CONTINUOUS
 62
     7
 10
-49.268434920933679
 20
-39.567751405305494
 30
0.0
  0
VERTEX
  5
9A6
  8
DATA
  6
CONTINUOUS
 62
     7
 10
-49.260002212843013
 20
-39.566801090546008
 30
0.0
  0
VERTEX
  5
9A7
  8
DATA
  6
CONTINUOUS
 62
     7
 10
-49.251581204761521
 20
-39.56583919429049
 30
0.0
  0
VERTEX
  5
9A8
  8
DATA
  6
CONTINUOUS
 62
     7
 10
-49.243171896689212
 20
-39.564865716538932
 30
0.0
  0
VERTEX
  5
9A9
  8
DATA
  6
CONTINUOUS
 62
     7
 10
-49.234774288626092
 20
-39.563880657291342
 30
0.0
  0
VERTEX
  5
9AA
  8
DATA
  6
CONTINUOUS
 62
     7
 10
-49.226388380572153
 20
-39.56288401654772
 30
0.0
  0
VERTEX
  5
9AB
  8
DATA
  6
CONTINUOUS
 62
     7
 10
-49.218014172527411
 20
-39.561875794308037
 30
0.0
  0
VERTEX
  5
9AC
  8
DATA
  6
CONTINUOUS
 62
     7
 10
-49.209651664491837
 20
-39.560855990572328
 30
0.0
  0
VERTEX
  5
9AD
  8
DATA
  6
CONTINUOUS
 62
     7
 10
-49.201300856465451
 20
-39.55982460534058
 30
0.0
  0
VERTEX
  5
9AE
  8
DATA
  6
CONTINUOUS
 62
     7
 10
-49.192961748448248
 20
-39.558781638612793
 30
0.0
  0
VERTEX
  5
9AF
  8
DATA
  6
CONTINUOUS
 62
     7
 10
-49.18463434044024
 20
-39.557727090388958
 30
0.0
  0
VERTEX
  5
9B0
  8
DATA
  6
CONTINUOUS
 62
     7
 10
-49.176318632441422
 20
-39.556660960669092
 30
0.0
  0
VERTEX
  5
9B1
  8
DATA
  6
CONTINUOUS
 62
     7
 10
-49.168014624451772
 20
-39.555583249453171
 30
0.0
  0
VERTEX
  5
9B2
  8
DATA
  6
CONTINUOUS
 62
     7
 10
-49.15972231647131
 20
-39.554493956741219
 30
0.0
  0
VERTEX
  5
9B3
  8
DATA
  6
CONTINUOUS
 62
     7
 10
-49.151441708500052
 20
-39.553393082533248
 30
0.0
  0
VERTEX
  5
9B4
  8
DATA
  6
CONTINUOUS
 62
     7
 10
-49.14317280053794
 20
-39.552280626829223
 30
0.0
  0
VERTEX
  5
9B5
  8
DATA
  6
CONTINUOUS
 62
     7
 10
-49.13491559258506
 20
-39.551156589629151
 30
0.0
  0
VERTEX
  5
9B6
  8
DATA
  6
CONTINUOUS
 62
     7
 10
-49.126670084641347
 20
-39.550020970933048
 30
0.0
  0
VERTEX
  5
9B7
  8
DATA
  6
CONTINUOUS
 62
     7
 10
-49.118436276706802
 20
-39.548873770740897
 30
0.0
  0
VERTEX
  5
9B8
  8
DATA
  6
CONTINUOUS
 62
     7
 10
-49.110214168781461
 20
-39.547714989052722
 30
0.0
  0
VERTEX
  5
9B9
  8
DATA
  6
CONTINUOUS
 62
     7
 10
-49.102003760865287
 20
-39.546544625868492
 30
0.0
  0
VERTEX
  5
9BA
  8
DATA
  6
CONTINUOUS
 62
     7
 10
-49.093805052958317
 20
-39.545362681188223
 30
0.0
  0
VERTEX
  5
9BB
  8
DATA
  6
CONTINUOUS
 62
     7
 10
-49.085618045060542
 20
-39.544169155011929
 30
0.0
  0
VERTEX
  5
9BC
  8
DATA
  6
CONTINUOUS
 62
     7
 10
-49.077442737171928
 20
-39.542964047339588
 30
0.0
  0
VERTEX
  5
9BD
  8
DATA
  6
CONTINUOUS
 62
     7
 10
-49.069279129292497
 20
-39.541747358171207
 30
0.0
  0
VERTEX
  5
9BE
  8
DATA
  6
CONTINUOUS
 62
     7
 10
-49.061127221422282
 20
-39.540519087506787
 30
0.0
  0
VERTEX
  5
9BF
  8
DATA
  6
CONTINUOUS
 62
     7
 10
-49.052987013561221
 20
-39.539279235346328
 30
0.0
  0
VERTEX
  5
9C0
  8
DATA
  6
CONTINUOUS
 62
     7
 10
-49.052987013561221
 20
-39.539279235346328
 30
0.0
  0
VERTEX
  5
9C1
  8
DATA
  6
CONTINUOUS
 62
     7
 10
-49.039362035691383
 20
-39.537173910086693
 30
0.0
  0
VERTEX
  5
9C2
  8
DATA
  6
CONTINUOUS
 62
     7
 10
-49.025827333928042
 20
-39.535044640439523
 30
0.0
  0
VERTEX
  5
9C3
  8
DATA
  6
CONTINUOUS
 62
     7
 10
-49.012382908271171
 20
-39.532891426404817
 30
0.0
  0
VERTEX
  5
9C4
  8
DATA
  6
CONTINUOUS
 62
     7
 10
-48.99902875872079
 20
-39.530714267982567
 30
0.0
  0
VERTEX
  5
9C5
  8
DATA
  6
CONTINUOUS
 62
     7
 10
-48.985764885276893
 20
-39.528513165172782
 30
0.0
  0
VERTEX
  5
9C6
  8
DATA
  6
CONTINUOUS
 62
     7
 10
-48.972591287939473
 20
-39.526288117975447
 30
0.0
  0
VERTEX
  5
9C7
  8
DATA
  6
CONTINUOUS
 62
     7
 10
-48.959507966708557
 20
-39.524039126390583
 30
0.0
  0
VERTEX
  5
9C8
  8
DATA
  6
CONTINUOUS
 62
     7
 10
-48.946514921584111
 20
-39.52176619041817
 30
0.0
  0
VERTEX
  5
9C9
  8
DATA
  6
CONTINUOUS
 62
     7
 10
-48.933612152566141
 20
-39.519469310058248
 30
0.0
  0
VERTEX
  5
9CA
  8
DATA
  6
CONTINUOUS
 62
     7
 10
-48.920799659654683
 20
-39.517148485310777
 30
0.0
  0
VERTEX
  5
9CB
  8
DATA
  6
CONTINUOUS
 62
     7
 10
-48.908077442849681
 20
-39.514803716175763
 30
0.0
  0
VERTEX
  5
9CC
  8
DATA
  6
CONTINUOUS
 62
     7
 10
-48.895445502151183
 20
-39.51243500265322
 30
0.0
  0
VERTEX
  5
9CD
  8
DATA
  6
CONTINUOUS
 62
     7
 10
-48.882903837559176
 20
-39.510042344743127
 30
0.0
  0
VERTEX
  5
9CE
  8
DATA
  6
CONTINUOUS
 62
     7
 10
-48.870452449073639
 20
-39.507625742445512
 30
0.0
  0
VERTEX
  5
9CF
  8
DATA
  6
CONTINUOUS
 62
     7
 10
-48.858091336694571
 20
-39.505185195760347
 30
0.0
  0
VERTEX
  5
9D0
  8
DATA
  6
CONTINUOUS
 62
     7
 10
-48.845820500422022
 20
-39.502720704687647
 30
0.0
  0
VERTEX
  5
9D1
  8
DATA
  6
CONTINUOUS
 62
     7
 10
-48.833639940255928
 20
-39.500232269227403
 30
0.0
  0
VERTEX
  5
9D2
  8
DATA
  6
CONTINUOUS
 62
     7
 10
-48.821549656196339
 20
-39.497719889379638
 30
0.0
  0
VERTEX
  5
9D3
  8
DATA
  6
CONTINUOUS
 62
     7
 10
-48.809549648243248
 20
-39.495183565144309
 30
0.0
  0
VERTEX
  5
9D4
  8
DATA
  6
CONTINUOUS
 62
     7
 10
-48.797639916396619
 20
-39.492623296521458
 30
0.0
  0
VERTEX
  5
9D5
  8
DATA
  6
CONTINUOUS
 62
     7
 10
-48.785820460656481
 20
-39.490039083511093
 30
0.0
  0
VERTEX
  5
9D6
  8
DATA
  6
CONTINUOUS
 62
     7
 10
-48.774091281022812
 20
-39.487430926113163
 30
0.0
  0
VERTEX
  5
9D7
  8
DATA
  6
CONTINUOUS
 62
     7
 10
-48.762452377495642
 20
-39.48479882432769
 30
0.0
  0
VERTEX
  5
9D8
  8
DATA
  6
CONTINUOUS
 62
     7
 10
-48.750903750074968
 20
-39.48214277815471
 30
0.0
  0
VERTEX
  5
9D9
  8
DATA
  6
CONTINUOUS
 62
     7
 10
-48.739445398760772
 20
-39.47946278759418
 30
0.0
  0
VERTEX
  5
9DA
  8
DATA
  6
CONTINUOUS
 62
     7
 10
-48.728077323553052
 20
-39.4767588526461
 30
0.0
  0
VERTEX
  5
9DB
  8
DATA
  6
CONTINUOUS
 62
     7
 10
-48.716799524451829
 20
-39.474030973310498
 30
0.0
  0
VERTEX
  5
9DC
  8
DATA
  6
CONTINUOUS
 62
     7
 10
-48.705612001457091
 20
-39.47127914958736
 30
0.0
  0
VERTEX
  5
9DD
  8
DATA
  6
CONTINUOUS
 62
     7
 10
-48.694514754568822
 20
-39.468503381476658
 30
0.0
  0
VERTEX
  5
9DE
  8
DATA
  6
CONTINUOUS
 62
     7
 10
-48.68350778378705
 20
-39.465703668978442
 30
0.0
  0
VERTEX
  5
9DF
  8
DATA
  6
CONTINUOUS
 62
     7
 10
-48.672591089111748
 20
-39.462880012092683
 30
0.0
  0
VERTEX
  5
9E0
  8
DATA
  6
CONTINUOUS
 62
     7
 10
-48.661764670542958
 20
-39.46003241081938
 30
0.0
  0
VERTEX
  5
9E1
  8
DATA
  6
CONTINUOUS
 62
     7
 10
-48.651028528080637
 20
-39.457160865158549
 30
0.0
  0
VERTEX
  5
9E2
  8
DATA
  6
CONTINUOUS
 62
     7
 10
-48.640382661724793
 20
-39.454265375110182
 30
0.0
  0
VERTEX
  5
9E3
  8
DATA
  6
CONTINUOUS
 62
     7
 10
-48.629827071475461
 20
-39.451345940674273
 30
0.0
  0
VERTEX
  5
9E4
  8
DATA
  6
CONTINUOUS
 62
     7
 10
-48.619361757332591
 20
-39.448402561850813
 30
0.0
  0
VERTEX
  5
9E5
  8
DATA
  6
CONTINUOUS
 62
     7
 10
-48.608986719296198
 20
-39.445435238639831
 30
0.0
  0
VERTEX
  5
9E6
  8
DATA
  6
CONTINUOUS
 62
     7
 10
-48.59870195736633
 20
-39.442443971041321
 30
0.0
  0
VERTEX
  5
9E7
  8
DATA
  6
CONTINUOUS
 62
     7
 10
-48.588507471542897
 20
-39.439428759055261
 30
0.0
  0
VERTEX
  5
9E8
  8
DATA
  6
CONTINUOUS
 62
     7
 10
-48.578403261825983
 20
-39.436389602681651
 30
0.0
  0
VERTEX
  5
9E9
  8
DATA
  6
CONTINUOUS
 62
     7
 10
-48.568389328215538
 20
-39.433326501920511
 30
0.0
  0
VERTEX
  5
9EA
  8
DATA
  6
CONTINUOUS
 62
     7
 10
-48.55846567071157
 20
-39.430239456771851
 30
0.0
  0
VERTEX
  5
9EB
  8
DATA
  6
CONTINUOUS
 62
     7
 10
-48.548632289314099
 20
-39.42712846723564
 30
0.0
  0
VERTEX
  5
9EC
  8
DATA
  6
CONTINUOUS
 62
     7
 10
-48.538889184023141
 20
-39.423993533311901
 30
0.0
  0
VERTEX
  5
9ED
  8
DATA
  6
CONTINUOUS
 62
     7
 10
-48.529236354838631
 20
-39.420834655000611
 30
0.0
  0
VERTEX
  5
9EE
  8
DATA
  6
CONTINUOUS
 62
     7
 10
-48.519673801760618
 20
-39.417651832301793
 30
0.0
  0
VERTEX
  5
9EF
  8
DATA
  6
CONTINUOUS
 62
     7
 10
-48.510201524789068
 20
-39.414445065215432
 30
0.0
  0
VERTEX
  5
9F0
  8
DATA
  6
CONTINUOUS
 62
     7
 10
-48.500819523924037
 20
-39.411214353741528
 30
0.0
  0
VERTEX
  5
9F1
  8
DATA
  6
CONTINUOUS
 62
     7
 10
-48.491527799165468
 20
-39.407959697880088
 30
0.0
  0
VERTEX
  5
9F2
  8
DATA
  6
CONTINUOUS
 62
     7
 10
-48.482326350513397
 20
-39.404681097631133
 30
0.0
  0
VERTEX
  5
9F3
  8
DATA
  6
CONTINUOUS
 62
     7
 10
-48.473215177967788
 20
-39.401378552994622
 30
0.0
  0
VERTEX
  5
9F4
  8
DATA
  6
CONTINUOUS
 62
     7
 10
-48.464194281528712
 20
-39.398052063970567
 30
0.0
  0
VERTEX
  5
9F5
  8
DATA
  6
CONTINUOUS
 62
     7
 10
-48.455263661196071
 20
-39.394701630558977
 30
0.0
  0
VERTEX
  5
9F6
  8
DATA
  6
CONTINUOUS
 62
     7
 10
-48.446423316969941
 20
-39.391327252759872
 30
0.0
  0
VERTEX
  5
9F7
  8
DATA
  6
CONTINUOUS
 62
     7
 10
-48.437673248850288
 20
-39.387928930573203
 30
0.0
  0
VERTEX
  5
9F8
  8
DATA
  6
CONTINUOUS
 62
     7
 10
-48.429013456837133
 20
-39.384506663999012
 30
0.0
  0
VERTEX
  5
9F9
  8
DATA
  6
CONTINUOUS
 62
     7
 10
-48.420443940930447
 20
-39.381060453037293
 30
0.0
  0
VERTEX
  5
9FA
  8
DATA
  6
CONTINUOUS
 62
     7
 10
-48.411964701130252
 20
-39.377590297688023
 30
0.0
  0
VERTEX
  5
9FB
  8
DATA
  6
CONTINUOUS
 62
     7
 10
-48.40357573743654
 20
-39.374096197951211
 30
0.0
  0
VERTEX
  5
9FC
  8
DATA
  6
CONTINUOUS
 62
     7
 10
-48.395277049849327
 20
-39.370578153826862
 30
0.0
  0
VERTEX
  5
9FD
  8
DATA
  6
CONTINUOUS
 62
     7
 10
-48.387068638368582
 20
-39.367036165314978
 30
0.0
  0
VERTEX
  5
9FE
  8
DATA
  6
CONTINUOUS
 62
     7
 10
-48.378950502994321
 20
-39.363470232415558
 30
0.0
  0
VERTEX
  5
9FF
  8
DATA
  6
CONTINUOUS
 62
     7
 10
-48.370922643726551
 20
-39.359880355128603
 30
0.0
  0
VERTEX
  5
A00
  8
DATA
  6
CONTINUOUS
 62
     7
 10
-48.362985060565272
 20
-39.356266533454097
 30
0.0
  0
VERTEX
  5
A01
  8
DATA
  6
CONTINUOUS
 62
     7
 10
-48.362985060565272
 20
-39.356266533454097
 30
0.0
  0
VERTEX
  5
A02
  8
DATA
  6
CONTINUOUS
 62
     7
 10
-48.355154275184631
 20
-39.352636357458771
 30
0.0
  0
VERTEX
  5
A03
  8
DATA
  6
CONTINUOUS
 62
     7
 10
-48.347446809258813
 20
-39.348997417209347
 30
0.0
  0
VERTEX
  5
A04
  8
DATA
  6
CONTINUOUS
 62
     7
 10
-48.339862662787802
 20
-39.345349712705783
 30
0.0
  0
VERTEX
  5
A05
  8
DATA
  6
CONTINUOUS
 62
     7
 10
-48.332401835771591
 20
-39.341693243948122
 30
0.0
  0
VERTEX
  5
A06
  8
DATA
  6
CONTINUOUS
 62
     7
 10
-48.32506432821021
 20
-39.338028010936327
 30
0.0
  0
VERTEX
  5
A07
  8
DATA
  6
CONTINUOUS
 62
     7
 10
-48.317850140103637
 20
-39.334354013670421
 30
0.0
  0
VERTEX
  5
A08
  8
DATA
  6
CONTINUOUS
 62
     7
 10
-48.310759271451893
 20
-39.330671252150388
 30
0.0
  0
VERTEX
  5
A09
  8
DATA
  6
CONTINUOUS
 62
     7
 10
-48.303791722254942
 20
-39.326979726376258
 30
0.0
  0
VERTEX
  5
A0A
  8
DATA
  6
CONTINUOUS
 62
     7
 10
-48.2969474925128
 20
-39.323279436348002
 30
0.0
  0
VERTEX
  5
A0B
  8
DATA
  6
CONTINUOUS
 62
     7
 10
-48.290226582225493
 20
-39.319570382065628
 30
0.0
  0
VERTEX
  5
A0C
  8
DATA
  6
CONTINUOUS
 62
     7
 10
-48.283628991392973
 20
-39.315852563529141
 30
0.0
  0
VERTEX
  5
A0D
  8
DATA
  6
CONTINUOUS
 62
     7
 10
-48.277154720015282
 20
-39.312125980738529
 30
0.0
  0
VERTEX
  5
A0E
  8
DATA
  6
CONTINUOUS
 62
     7
 10
-48.270803768092421
 20
-39.308390633693811
 30
0.0
  0
VERTEX
  5
A0F
  8
DATA
  6
CONTINUOUS
 62
     7
 10
-48.264576135624353
 20
-39.304646522394961
 30
0.0
  0
VERTEX
  5
A10
  8
DATA
  6
CONTINUOUS
 62
     7
 10
-48.258471822611099
 20
-39.300893646842013
 30
0.0
  0
VERTEX
  5
A11
  8
DATA
  6
CONTINUOUS
 62
     7
 10
-48.252490829052661
 20
-39.297132007034932
 30
0.0
  0
VERTEX
  5
A12
  8
DATA
  6
CONTINUOUS
 62
     7
 10
-48.246633154949023
 20
-39.293361602973732
 30
0.0
  0
VERTEX
  5
A13
  8
DATA
  6
CONTINUOUS
 62
     7
 10
-48.240898800300222
 20
-39.289582434658421
 30
0.0
  0
VERTEX
  5
A14
  8
DATA
  6
CONTINUOUS
 62
     7
 10
-48.2352877651062
 20
-39.285794502089011
 30
0.0
  0
VERTEX
  5
A15
  8
DATA
  6
CONTINUOUS
 62
     7
 10
-48.229800049367022
 20
-39.281997805265469
 30
0.0
  0
VERTEX
  5
A16
  8
DATA
  6
CONTINUOUS
 62
     7
 10
-48.224435653082651
 20
-39.278192344187822
 30
0.0
  0
VERTEX
  5
A17
  8
DATA
  6
CONTINUOUS
 62
     7
 10
-48.219194576253102
 20
-39.274378118856042
 30
0.0
  0
VERTEX
  5
A18
  8
DATA
  6
CONTINUOUS
 62
     7
 10
-48.214076818878347
 20
-39.27055512927015
 30
0.0
  0
VERTEX
  5
A19
  8
DATA
  6
CONTINUOUS
 62
     7
 10
-48.209082380958421
 20
-39.266723375430161
 30
0.0
  0
VERTEX
  5
A1A
  8
DATA
  6
CONTINUOUS
 62
     7
 10
-48.204211262493281
 20
-39.262882857336017
 30
0.0
  0
VERTEX
  5
A1B
  8
DATA
  6
CONTINUOUS
 62
     7
 10
-48.199463463482978
 20
-39.259033574987782
 30
0.0
  0
VERTEX
  5
A1C
  8
DATA
  6
CONTINUOUS
 62
     7
 10
-48.19483898392749
 20
-39.255175528385422
 30
0.0
  0
VERTEX
  5
A1D
  8
DATA
  6
CONTINUOUS
 62
     7
 10
-48.190337823826809
 20
-39.251308717528943
 30
0.0
  0
VERTEX
  5
A1E
  8
DATA
  6
CONTINUOUS
 62
     7
 10
-48.185959983180943
 20
-39.247433142418352
 30
0.0
  0
VERTEX
  5
A1F
  8
DATA
  6
CONTINUOUS
 62
     7
 10
-48.181705461989893
 20
-39.243548803053642
 30
0.0
  0
VERTEX
  5
A20
  8
DATA
  6
CONTINUOUS
 62
     7
 10
-48.17757426025365
 20
-39.23965569943482
 30
0.0
  0
VERTEX
  5
A21
  8
DATA
  6
CONTINUOUS
 62
     7
 10
-48.173566377972222
 20
-39.235753831561887
 30
0.0
  0
VERTEX
  5
A22
  8
DATA
  6
CONTINUOUS
 62
     7
 10
-48.169681815145601
 20
-39.23184319943482
 30
0.0
  0
VERTEX
  5
A23
  8
DATA
  6
CONTINUOUS
 62
     7
 10
-48.165920571773803
 20
-39.227923803053642
 30
0.0
  0
VERTEX
  5
A24
  8
DATA
  6
CONTINUOUS
 62
     7
 10
-48.16228264785682
 20
-39.223995642418352
 30
0.0
  0
VERTEX
  5
A25
  8
DATA
  6
CONTINUOUS
 62
     7
 10
-48.158768043394637
 20
-39.220058717528943
 30
0.0
  0
VERTEX
  5
A26
  8
DATA
  6
CONTINUOUS
 62
     7
 10
-48.155376758387277
 20
-39.216113028385422
 30
0.0
  0
VERTEX
  5
A27
  8
DATA
  6
CONTINUOUS
 62
     7
 10
-48.152108792834717
 20
-39.212158574987782
 30
0.0
  0
VERTEX
  5
A28
  8
DATA
  6
CONTINUOUS
 62
     7
 10
-48.148964146736972
 20
-39.208195357336017
 30
0.0
  0
VERTEX
  5
A29
  8
DATA
  6
CONTINUOUS
 62
     7
 10
-48.145942820094056
 20
-39.204223375430161
 30
0.0
  0
VERTEX
  5
A2A
  8
DATA
  6
CONTINUOUS
 62
     7
 10
-48.143044812905963
 20
-39.20024262927015
 30
0.0
  0
VERTEX
  5
A2B
  8
DATA
  6
CONTINUOUS
 62
     7
 10
-48.140270125172648
 20
-39.196253118856042
 30
0.0
  0
VERTEX
  5
A2C
  8
DATA
  6
CONTINUOUS
 62
     7
 10
-48.137618756894177
 20
-39.192254844187808
 30
0.0
  0
VERTEX
  5
A2D
  8
DATA
  6
CONTINUOUS
 62
     7
 10
-48.1350907080705
 20
-39.188247805265469
 30
0.0
  0
VERTEX
  5
A2E
  8
DATA
  6
CONTINUOUS
 62
     7
 10
-48.132685978701652
 20
-39.184232002089011
 30
0.0
  0
VERTEX
  5
A2F
  8
DATA
  6
CONTINUOUS
 62
     7
 10
-48.130404568787611
 20
-39.180207434658421
 30
0.0
  0
VERTEX
  5
A30
  8
DATA
  6
CONTINUOUS
 62
     7
 10
-48.128246478328379
 20
-39.176174102973732
 30
0.0
  0
VERTEX
  5
A31
  8
DATA
  6
CONTINUOUS
 62
     7
 10
-48.126211707323961
 20
-39.172132007034932
 30
0.0
  0
VERTEX
  5
A32
  8
DATA
  6
CONTINUOUS
 62
     7
 10
-48.124300255774358
 20
-39.168081146842013
 30
0.0
  0
VERTEX
  5
A33
  8
DATA
  6
CONTINUOUS
 62
     7
 10
-48.12251212367957
 20
-39.164021522394961
 30
0.0
  0
VERTEX
  5
A34
  8
DATA
  6
CONTINUOUS
 62
     7
 10
-48.12084731103959
 20
-39.159953133693811
 30
0.0
  0
VERTEX
  5
A35
  8
DATA
  6
CONTINUOUS
 62
     7
 10
-48.119305817854432
 20
-39.155875980738529
 30
0.0
  0
VERTEX
  5
A36
  8
DATA
  6
CONTINUOUS
 62
     7
 10
-48.117887644124082
 20
-39.151790063529127
 30
0.0
  0
VERTEX
  5
A37
  8
DATA
  6
CONTINUOUS
 62
     7
 10
-48.116592789848539
 20
-39.147695382065628
 30
0.0
  0
VERTEX
  5
A38
  8
DATA
  6
CONTINUOUS
 62
     7
 10
-48.115421255027812
 20
-39.143591936348002
 30
0.0
  0
VERTEX
  5
A39
  8
DATA
  6
CONTINUOUS
 62
     7
 10
-48.114373039661892
 20
-39.139479726376258
 30
0.0
  0
VERTEX
  5
A3A
  8
DATA
  6
CONTINUOUS
 62
     7
 10
-48.113448143750801
 20
-39.135358752150388
 30
0.0
  0
VERTEX
  5
A3B
  8
DATA
  6
CONTINUOUS
 62
     7
 10
-48.112646567294519
 20
-39.131229013670414
 30
0.0
  0
VERTEX
  5
A3C
  8
DATA
  6
CONTINUOUS
 62
     7
 10
-48.11196831029303
 20
-39.127090510936327
 30
0.0
  0
VERTEX
  5
A3D
  8
DATA
  6
CONTINUOUS
 62
     7
 10
-48.111413372746377
 20
-39.122943243948122
 30
0.0
  0
VERTEX
  5
A3E
  8
DATA
  6
CONTINUOUS
 62
     7
 10
-48.110981754654532
 20
-39.118787212705783
 30
0.0
  0
VERTEX
  5
A3F
  8
DATA
  6
CONTINUOUS
 62
     7
 10
-48.110673456017487
 20
-39.114622417209347
 30
0.0
  0
VERTEX
  5
A40
  8
DATA
  6
CONTINUOUS
 62
     7
 10
-48.110488476835272
 20
-39.110448857458771
 30
0.0
  0
VERTEX
  5
A41
  8
DATA
  6
CONTINUOUS
 62
     7
 10
-48.110426817107871
 20
-39.106266533454097
 30
0.0
  0
VERTEX
  5
A42
  8
DATA
  6
CONTINUOUS
 62
     7
 10
-48.110426817107871
 20
-39.106266533454097
 30
0.0
  0
VERTEX
  5
A43
  8
DATA
  6
CONTINUOUS
 62
     7
 10
-48.110488476835272
 20
-39.10208420944943
 30
0.0
  0
VERTEX
  5
A44
  8
DATA
  6
CONTINUOUS
 62
     7
 10
-48.110673456017487
 20
-39.097910649698868
 30
0.0
  0
VERTEX
  5
A45
  8
DATA
  6
CONTINUOUS
 62
     7
 10
-48.110981754654532
 20
-39.093745854202432
 30
0.0
  0
VERTEX
  5
A46
  8
DATA
  6
CONTINUOUS
 62
     7
 10
-48.111413372746377
 20
-39.0895898229601
 30
0.0
  0
VERTEX
  5
A47
  8
DATA
  6
CONTINUOUS
 62
     7
 10
-48.11196831029303
 20
-39.085442555971888
 30
0.0
  0
VERTEX
  5
A48
  8
DATA
  6
CONTINUOUS
 62
     7
 10
-48.112646567294519
 20
-39.08130405323778
 30
0.0
  0
VERTEX
  5
A49
  8
DATA
  6
CONTINUOUS
 62
     7
 10
-48.113448143750801
 20
-39.077174314757812
 30
0.0
  0
VERTEX
  5
A4A
  8
DATA
  6
CONTINUOUS
 62
     7
 10
-48.114373039661892
 20
-39.073053340531942
 30
0.0
  0
VERTEX
  5
A4B
  8
DATA
  6
CONTINUOUS
 62
     7
 10
-48.115421255027812
 20
-39.068941130560212
 30
0.0
  0
VERTEX
  5
A4C
  8
DATA
  6
CONTINUOUS
 62
     7
 10
-48.116592789848539
 20
-39.064837684842573
 30
0.0
  0
VERTEX
  5
A4D
  8
DATA
  6
CONTINUOUS
 62
     7
 10
-48.117887644124082
 20
-39.060743003379052
 30
0.0
  0
VERTEX
  5
A4E
  8
DATA
  6
CONTINUOUS
 62
     7
 10
-48.119305817854432
 20
-39.056657086169672
 30
0.0
  0
VERTEX
  5
A4F
  8
DATA
  6
CONTINUOUS
 62
     7
 10
-48.12084731103959
 20
-39.052579933214403
 30
0.0
  0
VERTEX
  5
A50
  8
DATA
  6
CONTINUOUS
 62
     7
 10
-48.12251212367957
 20
-39.048511544513232
 30
0.0
  0
VERTEX
  5
A51
  8
DATA
  6
CONTINUOUS
 62
     7
 10
-48.124300255774358
 20
-39.044451920066187
 30
0.0
  0
VERTEX
  5
A52
  8
DATA
  6
CONTINUOUS
 62
     7
 10
-48.126211707323961
 20
-39.040401059873268
 30
0.0
  0
VERTEX
  5
A53
  8
DATA
  6
CONTINUOUS
 62
     7
 10
-48.128246478328379
 20
-39.036358963934461
 30
0.0
  0
VERTEX
  5
A54
  8
DATA
  6
CONTINUOUS
 62
     7
 10
-48.130404568787611
 20
-39.032325632249773
 30
0.0
  0
VERTEX
  5
A55
  8
DATA
  6
CONTINUOUS
 62
     7
 10
-48.132685978701652
 20
-39.028301064819189
 30
0.0
  0
VERTEX
  5
A56
  8
DATA
  6
CONTINUOUS
 62
     7
 10
-48.1350907080705
 20
-39.024285261642731
 30
0.0
  0
VERTEX
  5
A57
  8
DATA
  6
CONTINUOUS
 62
     7
 10
-48.137618756894177
 20
-39.020278222720393
 30
0.0
  0
VERTEX
  5
A58
  8
DATA
  6
CONTINUOUS
 62
     7
 10
-48.140270125172648
 20
-39.016279948052173
 30
0.0
  0
VERTEX
  5
A59
  8
DATA
  6
CONTINUOUS
 62
     7
 10
-48.143044812905963
 20
-39.01229043763805
 30
0.0
  0
VERTEX
  5
A5A
  8
DATA
  6
CONTINUOUS
 62
     7
 10
-48.145942820094056
 20
-39.008309691478061
 30
0.0
  0
VERTEX
  5
A5B
  8
DATA
  6
CONTINUOUS
 62
     7
 10
-48.148964146736972
 20
-39.00433770957217
 30
0.0
  0
VERTEX
  5
A5C
  8
DATA
  6
CONTINUOUS
 62
     7
 10
-48.152108792834717
 20
-39.000374491920432
 30
0.0
  0
VERTEX
  5
A5D
  8
DATA
  6
CONTINUOUS
 62
     7
 10
-48.155376758387277
 20
-38.996420038522771
 30
0.0
  0
VERTEX
  5
A5E
  8
DATA
  6
CONTINUOUS
 62
     7
 10
-48.158768043394637
 20
-38.99247434937925
 30
0.0
  0
VERTEX
  5
A5F
  8
DATA
  6
CONTINUOUS
 62
     7
 10
-48.16228264785682
 20
-38.988537424489849
 30
0.0
  0
VERTEX
  5
A60
  8
DATA
  6
CONTINUOUS
 62
     7
 10
-48.165920571773803
 20
-38.984609263854551
 30
0.0
  0
VERTEX
  5
A61
  8
DATA
  6
CONTINUOUS
 62
     7
 10
-48.169681815145601
 20
-38.980689867473359
 30
0.0
  0
VERTEX
  5
A62
  8
DATA
  6
CONTINUOUS
 62
     7
 10
-48.173566377972222
 20
-38.976779235346321
 30
0.0
  0
VERTEX
  5
A63
  8
DATA
  6
CONTINUOUS
 62
     7
 10
-48.17757426025365
 20
-38.972877367473373
 30
0.0
  0
VERTEX
  5
A64
  8
DATA
  6
CONTINUOUS
 62
     7
 10
-48.181705461989893
 20
-38.968984263854551
 30
0.0
  0
VERTEX
  5
A65
  8
DATA
  6
CONTINUOUS
 62
     7
 10
-48.185959983180943
 20
-38.965099924489849
 30
0.0
  0
VERTEX
  5
A66
  8
DATA
  6
CONTINUOUS
 62
     7
 10
-48.190337823826809
 20
-38.96122434937925
 30
0.0
  0
VERTEX
  5
A67
  8
DATA
  6
CONTINUOUS
 62
     7
 10
-48.19483898392749
 20
-38.957357538522771
 30
0.0
  0
VERTEX
  5
A68
  8
DATA
  6
CONTINUOUS
 62
     7
 10
-48.199463463482978
 20
-38.953499491920432
 30
0.0
  0
VERTEX
  5
A69
  8
DATA
  6
CONTINUOUS
 62
     7
 10
-48.204211262493281
 20
-38.94965020957217
 30
0.0
  0
VERTEX
  5
A6A
  8
DATA
  6
CONTINUOUS
 62
     7
 10
-48.209082380958421
 20
-38.945809691478061
 30
0.0
  0
VERTEX
  5
A6B
  8
DATA
  6
CONTINUOUS
 62
     7
 10
-48.214076818878347
 20
-38.94197793763805
 30
0.0
  0
VERTEX
  5
A6C
  8
DATA
  6
CONTINUOUS
 62
     7
 10
-48.219194576253102
 20
-38.938154948052173
 30
0.0
  0
VERTEX
  5
A6D
  8
DATA
  6
CONTINUOUS
 62
     7
 10
-48.224435653082651
 20
-38.934340722720393
 30
0.0
  0
VERTEX
  5
A6E
  8
DATA
  6
CONTINUOUS
 62
     7
 10
-48.229800049367022
 20
-38.930535261642731
 30
0.0
  0
VERTEX
  5
A6F
  8
DATA
  6
CONTINUOUS
 62
     7
 10
-48.2352877651062
 20
-38.926738564819189
 30
0.0
  0
VERTEX
  5
A70
  8
DATA
  6
CONTINUOUS
 62
     7
 10
-48.240898800300222
 20
-38.922950632249773
 30
0.0
  0
VERTEX
  5
A71
  8
DATA
  6
CONTINUOUS
 62
     7
 10
-48.246633154949023
 20
-38.919171463934461
 30
0.0
  0
VERTEX
  5
A72
  8
DATA
  6
CONTINUOUS
 62
     7
 10
-48.252490829052661
 20
-38.915401059873268
 30
0.0
  0
VERTEX
  5
A73
  8
DATA
  6
CONTINUOUS
 62
     7
 10
-48.258471822611099
 20
-38.911639420066187
 30
0.0
  0
VERTEX
  5
A74
  8
DATA
  6
CONTINUOUS
 62
     7
 10
-48.264576135624353
 20
-38.907886544513232
 30
0.0
  0
VERTEX
  5
A75
  8
DATA
  6
CONTINUOUS
 62
     7
 10
-48.270803768092421
 20
-38.904142433214403
 30
0.0
  0
VERTEX
  5
A76
  8
DATA
  6
CONTINUOUS
 62
     7
 10
-48.277154720015282
 20
-38.900407086169672
 30
0.0
  0
VERTEX
  5
A77
  8
DATA
  6
CONTINUOUS
 62
     7
 10
-48.283628991392973
 20
-38.896680503379052
 30
0.0
  0
VERTEX
  5
A78
  8
DATA
  6
CONTINUOUS
 62
     7
 10
-48.290226582225493
 20
-38.892962684842573
 30
0.0
  0
VERTEX
  5
A79
  8
DATA
  6
CONTINUOUS
 62
     7
 10
-48.2969474925128
 20
-38.889253630560212
 30
0.0
  0
VERTEX
  5
A7A
  8
DATA
  6
CONTINUOUS
 62
     7
 10
-48.303791722254942
 20
-38.885553340531942
 30
0.0
  0
VERTEX
  5
A7B
  8
DATA
  6
CONTINUOUS
 62
     7
 10
-48.310759271451893
 20
-38.881861814757812
 30
0.0
  0
VERTEX
  5
A7C
  8
DATA
  6
CONTINUOUS
 62
     7
 10
-48.317850140103637
 20
-38.87817905323778
 30
0.0
  0
VERTEX
  5
A7D
  8
DATA
  6
CONTINUOUS
 62
     7
 10
-48.32506432821021
 20
-38.874505055971888
 30
0.0
  0
VERTEX
  5
A7E
  8
DATA
  6
CONTINUOUS
 62
     7
 10
-48.332401835771591
 20
-38.8708398229601
 30
0.0
  0
VERTEX
  5
A7F
  8
DATA
  6
CONTINUOUS
 62
     7
 10
-48.339862662787802
 20
-38.867183354202432
 30
0.0
  0
VERTEX
  5
A80
  8
DATA
  6
CONTINUOUS
 62
     7
 10
-48.347446809258813
 20
-38.863535649698868
 30
0.0
  0
VERTEX
  5
A81
  8
DATA
  6
CONTINUOUS
 62
     7
 10
-48.355154275184631
 20
-38.85989670944943
 30
0.0
  0
VERTEX
  5
A82
  8
DATA
  6
CONTINUOUS
 62
     7
 10
-48.362985060565272
 20
-38.856266533454097
 30
0.0
  0
VERTEX
  5
A83
  8
DATA
  6
CONTINUOUS
 62
     7
 10
-48.362985060565272
 20
-38.856266533454097
 30
0.0
  0
VERTEX
  5
A84
  8
DATA
  6
CONTINUOUS
 62
     7
 10
-48.370922643726551
 20
-38.852652711779612
 30
0.0
  0
VERTEX
  5
A85
  8
DATA
  6
CONTINUOUS
 62
     7
 10
-48.378950502994321
 20
-38.849062834492649
 30
0.0
  0
VERTEX
  5
A86
  8
DATA
  6
CONTINUOUS
 62
     7
 10
-48.387068638368582
 20
-38.845496901593229
 30
0.0
  0
VERTEX
  5
A87
  8
DATA
  6
CONTINUOUS
 62
     7
 10
-48.395277049849327
 20
-38.841954913081352
 30
0.0
  0
VERTEX
  5
A88
  8
DATA
  6
CONTINUOUS
 62
     7
 10
-48.40357573743654
 20
-38.838436868957011
 30
0.0
  0
VERTEX
  5
A89
  8
DATA
  6
CONTINUOUS
 62
     7
 10
-48.411964701130252
 20
-38.834942769220177
 30
0.0
  0
VERTEX
  5
A8A
  8
DATA
  6
CONTINUOUS
 62
     7
 10
-48.420443940930447
 20
-38.831472613870922
 30
0.0
  0
VERTEX
  5
A8B
  8
DATA
  6
CONTINUOUS
 62
     7
 10
-48.429013456837133
 20
-38.828026402909188
 30
0.0
  0
VERTEX
  5
A8C
  8
DATA
  6
CONTINUOUS
 62
     7
 10
-48.437673248850288
 20
-38.82460413633499
 30
0.0
  0
VERTEX
  5
A8D
  8
DATA
  6
CONTINUOUS
 62
     7
 10
-48.446423316969941
 20
-38.821205814148328
 30
0.0
  0
VERTEX
  5
A8E
  8
DATA
  6
CONTINUOUS
 62
     7
 10
-48.455263661196071
 20
-38.817831436349209
 30
0.0
  0
VERTEX
  5
A8F
  8
DATA
  6
CONTINUOUS
 62
     7
 10
-48.464194281528712
 20
-38.814481002937633
 30
0.0
  0
VERTEX
  5
A90
  8
DATA
  6
CONTINUOUS
 62
     7
 10
-48.473215177967788
 20
-38.811154513913593
 30
0.0
  0
VERTEX
  5
A91
  8
DATA
  6
CONTINUOUS
 62
     7
 10
-48.482326350513397
 20
-38.807851969277067
 30
0.0
  0
VERTEX
  5
A92
  8
DATA
  6
CONTINUOUS
 62
     7
 10
-48.491527799165468
 20
-38.804573369028098
 30
0.0
  0
VERTEX
  5
A93
  8
DATA
  6
CONTINUOUS
 62
     7
 10
-48.500819523924037
 20
-38.801318713166673
 30
0.0
  0
VERTEX
  5
A94
  8
DATA
  6
CONTINUOUS
 62
     7
 10
-48.510201524789068
 20
-38.798088001692769
 30
0.0
  0
VERTEX
  5
A95
  8
DATA
  6
CONTINUOUS
 62
     7
 10
-48.519673801760618
 20
-38.794881234606407
 30
0.0
  0
VERTEX
  5
A96
  8
DATA
  6
CONTINUOUS
 62
     7
 10
-48.529236354838631
 20
-38.79169841190761
 30
0.0
  0
VERTEX
  5
A97
  8
DATA
  6
CONTINUOUS
 62
     7
 10
-48.538889184023141
 20
-38.788539533596321
 30
0.0
  0
VERTEX
  5
A98
  8
DATA
  6
CONTINUOUS
 62
     7
 10
-48.548632289314099
 20
-38.78540459967256
 30
0.0
  0
VERTEX
  5
A99
  8
DATA
  6
CONTINUOUS
 62
     7
 10
-48.55846567071157
 20
-38.78229361013635
 30
0.0
  0
VERTEX
  5
A9A
  8
DATA
  6
CONTINUOUS
 62
     7
 10
-48.568389328215538
 20
-38.779206564987682
 30
0.0
  0
VERTEX
  5
A9B
  8
DATA
  6
CONTINUOUS
 62
     7
 10
-48.578403261825983
 20
-38.776143464226543
 30
0.0
  0
VERTEX
  5
A9C
  8
DATA
  6
CONTINUOUS
 62
     7
 10
-48.588507471542897
 20
-38.773104307852961
 30
0.0
  0
VERTEX
  5
A9D
  8
DATA
  6
CONTINUOUS
 62
     7
 10
-48.59870195736633
 20
-38.770089095866901
 30
0.0
  0
VERTEX
  5
A9E
  8
DATA
  6
CONTINUOUS
 62
     7
 10
-48.608986719296198
 20
-38.767097828268383
 30
0.0
  0
VERTEX
  5
A9F
  8
DATA
  6
CONTINUOUS
 62
     7
 10
-48.619361757332591
 20
-38.764130505057388
 30
0.0
  0
VERTEX
  5
AA0
  8
DATA
  6
CONTINUOUS
 62
     7
 10
-48.629827071475461
 20
-38.761187126233942
 30
0.0
  0
VERTEX
  5
AA1
  8
DATA
  6
CONTINUOUS
 62
     7
 10
-48.640382661724793
 20
-38.758267691798032
 30
0.0
  0
VERTEX
  5
AA2
  8
DATA
  6
CONTINUOUS
 62
     7
 10
-48.651028528080637
 20
-38.755372201749672
 30
0.0
  0
VERTEX
  5
AA3
  8
DATA
  6
CONTINUOUS
 62
     7
 10
-48.661764670542958
 20
-38.752500656088827
 30
0.0
  0
VERTEX
  5
AA4
  8
DATA
  6
CONTINUOUS
 62
     7
 10
-48.672591089111748
 20
-38.749653054815532
 30
0.0
  0
VERTEX
  5
AA5
  8
DATA
  6
CONTINUOUS
 62
     7
 10
-48.68350778378705
 20
-38.746829397929773
 30
0.0
  0
VERTEX
  5
AA6
  8
DATA
  6
CONTINUOUS
 62
     7
 10
-48.694514754568822
 20
-38.744029685431549
 30
0.0
  0
VERTEX
  5
AA7
  8
DATA
  6
CONTINUOUS
 62
     7
 10
-48.705612001457091
 20
-38.741253917320869
 30
0.0
  0
VERTEX
  5
AA8
  8
DATA
  6
CONTINUOUS
 62
     7
 10
-48.716799524451829
 20
-38.738502093597717
 30
0.0
  0
VERTEX
  5
AA9
  8
DATA
  6
CONTINUOUS
 62
     7
 10
-48.728077323553052
 20
-38.735774214262101
 30
0.0
  0
VERTEX
  5
AAA
  8
DATA
  6
CONTINUOUS
 62
     7
 10
-48.739445398760772
 20
-38.73307027931402
 30
0.0
  0
VERTEX
  5
AAB
  8
DATA
  6
CONTINUOUS
 62
     7
 10
-48.750903750074968
 20
-38.73039028875349
 30
0.0
  0
VERTEX
  5
AAC
  8
DATA
  6
CONTINUOUS
 62
     7
 10
-48.762452377495642
 20
-38.727734242580489
 30
0.0
  0
VERTEX
  5
AAD
  8
DATA
  6
CONTINUOUS
 62
     7
 10
-48.774091281022812
 20
-38.72510214079503
 30
0.0
  0
VERTEX
  5
AAE
  8
DATA
  6
CONTINUOUS
 62
     7
 10
-48.785820460656481
 20
-38.722493983397108
 30
0.0
  0
VERTEX
  5
AAF
  8
DATA
  6
CONTINUOUS
 62
     7
 10
-48.797639916396619
 20
-38.719909770386721
 30
0.0
  0
VERTEX
  5
AB0
  8
DATA
  6
CONTINUOUS
 62
     7
 10
-48.809549648243248
 20
-38.717349501763891
 30
0.0
  0
VERTEX
  5
AB1
  8
DATA
  6
CONTINUOUS
 62
     7
 10
-48.821549656196339
 20
-38.714813177528569
 30
0.0
  0
VERTEX
  5
AB2
  8
DATA
  6
CONTINUOUS
 62
     7
 10
-48.833639940255928
 20
-38.712300797680797
 30
0.0
  0
VERTEX
  5
AB3
  8
DATA
  6
CONTINUOUS
 62
     7
 10
-48.845820500422022
 20
-38.709812362220561
 30
0.0
  0
VERTEX
  5
AB4
  8
DATA
  6
CONTINUOUS
 62
     7
 10
-48.858091336694571
 20
-38.70734787114786
 30
0.0
  0
VERTEX
  5
AB5
  8
DATA
  6
CONTINUOUS
 62
     7
 10
-48.870452449073639
 20
-38.704907324462702
 30
0.0
  0
VERTEX
  5
AB6
  8
DATA
  6
CONTINUOUS
 62
     7
 10
-48.882903837559176
 20
-38.702490722165066
 30
0.0
  0
VERTEX
  5
AB7
  8
DATA
  6
CONTINUOUS
 62
     7
 10
-48.895445502151183
 20
-38.700098064254988
 30
0.0
  0
VERTEX
  5
AB8
  8
DATA
  6
CONTINUOUS
 62
     7
 10
-48.908077442849681
 20
-38.697729350732452
 30
0.0
  0
VERTEX
  5
AB9
  8
DATA
  6
CONTINUOUS
 62
     7
 10
-48.920799659654683
 20
-38.69538458159743
 30
0.0
  0
VERTEX
  5
ABA
  8
DATA
  6
CONTINUOUS
 62
     7
 10
-48.933612152566141
 20
-38.693063756849959
 30
0.0
  0
VERTEX
  5
ABB
  8
DATA
  6
CONTINUOUS
 62
     7
 10
-48.946514921584111
 20
-38.690766876490017
 30
0.0
  0
VERTEX
  5
ABC
  8
DATA
  6
CONTINUOUS
 62
     7
 10
-48.959507966708557
 20
-38.688493940517617
 30
0.0
  0
VERTEX
  5
ABD
  8
DATA
  6
CONTINUOUS
 62
     7
 10
-48.972591287939473
 20
-38.68624494893276
 30
0.0
  0
VERTEX
  5
ABE
  8
DATA
  6
CONTINUOUS
 62
     7
 10
-48.985764885276893
 20
-38.684019901735432
 30
0.0
  0
VERTEX
  5
ABF
  8
DATA
  6
CONTINUOUS
 62
     7
 10
-48.99902875872079
 20
-38.681818798925647
 30
0.0
  0
VERTEX
  5
AC0
  8
DATA
  6
CONTINUOUS
 62
     7
 10
-49.012382908271171
 20
-38.679641640503398
 30
0.0
  0
VERTEX
  5
AC1
  8
DATA
  6
CONTINUOUS
 62
     7
 10
-49.025827333928042
 20
-38.677488426468678
 30
0.0
  0
VERTEX
  5
AC2
  8
DATA
  6
CONTINUOUS
 62
     7
 10
-49.039362035691383
 20
-38.675359156821521
 30
0.0
  0
VERTEX
  5
AC3
  8
DATA
  6
CONTINUOUS
 62
     7
 10
-49.052987013561221
 20
-38.673253831561887
 30
0.0
  0
VERTEX
  5
AC4
  8
DATA
  6
CONTINUOUS
 62
     7
 10
-49.052987013561221
 20
-38.673253831561887
 30
0.0
  0
VERTEX
  5
AC5
  8
DATA
  6
CONTINUOUS
 62
     7
 10
-49.066673651158467
 20
-38.671176832816847
 30
0.0
  0
VERTEX
  5
AC6
  8
DATA
  6
CONTINUOUS
 62
     7
 10
-49.080393332104038
 20
-38.669132542713449
 30
0.0
  0
VERTEX
  5
AC7
  8
DATA
  6
CONTINUOUS
 62
     7
 10
-49.094146056397932
 20
-38.667120961251719
 30
0.0
  0
VERTEX
  5
AC8
  8
DATA
  6
CONTINUOUS
 62
     7
 10
-49.107931824040172
 20
-38.665142088431651
 30
0.0
  0
VERTEX
  5
AC9
  8
DATA
  6
CONTINUOUS
 62
     7
 10
-49.121750635030729
 20
-38.663195924253223
 30
0.0
  0
VERTEX
  5
ACA
  8
DATA
  6
CONTINUOUS
 62
     7
 10
-49.135602489369617
 20
-38.661282468716458
 30
0.0
  0
VERTEX
  5
ACB
  8
DATA
  6
CONTINUOUS
 62
     7
 10
-49.14948738705683
 20
-38.659401721821332
 30
0.0
  0
VERTEX
  5
ACC
  8
DATA
  6
CONTINUOUS
 62
     7
 10
-49.16340532809236
 20
-38.657553683567869
 30
0.0
  0
VERTEX
  5
ACD
  8
DATA
  6
CONTINUOUS
 62
     7
 10
-49.177356312476242
 20
-38.65573835395606
 30
0.0
  0
VERTEX
  5
ACE
  8
DATA
  6
CONTINUOUS
 62
     7
 10
-49.19134034020842
 20
-38.653955732985906
 30
0.0
  0
VERTEX
  5
ACF
  8
DATA
  6
CONTINUOUS
 62
     7
 10
-49.205357411288958
 20
-38.652205820657407
 30
0.0
  0
VERTEX
  5
AD0
  8
DATA
  6
CONTINUOUS
 62
     7
 10
-49.219407525717813
 20
-38.650488616970563
 30
0.0
  0
VERTEX
  5
AD1
  8
DATA
  6
CONTINUOUS
 62
     7
 10
-49.233490683494999
 20
-38.648804121925373
 30
0.0
  0
VERTEX
  5
AD2
  8
DATA
  6
CONTINUOUS
 62
     7
 10
-49.247606884620502
 20
-38.647152335521852
 30
0.0
  0
VERTEX
  5
AD3
  8
DATA
  6
CONTINUOUS
 62
     7
 10
-49.261756129094351
 20
-38.645533257759972
 30
0.0
  0
VERTEX
  5
AD4
  8
DATA
  6
CONTINUOUS
 62
     7
 10
-49.275938416916532
 20
-38.643946888639732
 30
0.0
  0
VERTEX
  5
AD5
  8
DATA
  6
CONTINUOUS
 62
     7
 10
-49.290153748087022
 20
-38.642393228161147
 30
0.0
  0
VERTEX
  5
AD6
  8
DATA
  6
CONTINUOUS
 62
     7
 10
-49.30440212260585
 20
-38.640872276324231
 30
0.0
  0
VERTEX
  5
AD7
  8
DATA
  6
CONTINUOUS
 62
     7
 10
-49.318683540472968
 20
-38.63938403312897
 30
0.0
  0
VERTEX
  5
AD8
  8
DATA
  6
CONTINUOUS
 62
     7
 10
-49.332998001688473
 20
-38.637928498575349
 30
0.0
  0
VERTEX
  5
AD9
  8
DATA
  6
CONTINUOUS
 62
     7
 10
-49.347345506252282
 20
-38.636505672663397
 30
0.0
  0
VERTEX
  5
ADA
  8
DATA
  6
CONTINUOUS
 62
     7
 10
-49.361726054164421
 20
-38.635115555393092
 30
0.0
  0
VERTEX
  5
ADB
  8
DATA
  6
CONTINUOUS
 62
     7
 10
-49.376139645424892
 20
-38.633758146764457
 30
0.0
  0
VERTEX
  5
ADC
  8
DATA
  6
CONTINUOUS
 62
     7
 10
-49.390586280033681
 20
-38.632433446777462
 30
0.0
  0
VERTEX
  5
ADD
  8
DATA
  6
CONTINUOUS
 62
     7
 10
-49.405065957990807
 20
-38.631141455432122
 30
0.0
  0
VERTEX
  5
ADE
  8
DATA
  6
CONTINUOUS
 62
     7
 10
-49.419578679296258
 20
-38.629882172728422
 30
0.0
  0
VERTEX
  5
ADF
  8
DATA
  6
CONTINUOUS
 62
     7
 10
-49.434124443950033
 20
-38.628655598666398
 30
0.0
  0
VERTEX
  5
AE0
  8
DATA
  6
CONTINUOUS
 62
     7
 10
-49.448703251952139
 20
-38.627461733246022
 30
0.0
  0
VERTEX
  5
AE1
  8
DATA
  6
CONTINUOUS
 62
     7
 10
-49.46331510330257
 20
-38.626300576467287
 30
0.0
  0
VERTEX
  5
AE2
  8
DATA
  6
CONTINUOUS
 62
     7
 10
-49.477959998001353
 20
-38.625172128330227
 30
0.0
  0
VERTEX
  5
AE3
  8
DATA
  6
CONTINUOUS
 62
     7
 10
-49.492637936048432
 20
-38.624076388834808
 30
0.0
  0
VERTEX
  5
AE4
  8
DATA
  6
CONTINUOUS
 62
     7
 10
-49.507348917443849
 20
-38.623013357981037
 30
0.0
  0
VERTEX
  5
AE5
  8
DATA
  6
CONTINUOUS
 62
     7
 10
-49.522092942187612
 20
-38.621983035768949
 30
0.0
  0
VERTEX
  5
AE6
  8
DATA
  6
CONTINUOUS
 62
     7
 10
-49.536870010279678
 20
-38.620985422198487
 30
0.0
  0
VERTEX
  5
AE7
  8
DATA
  6
CONTINUOUS
 62
     7
 10
-49.551680121720068
 20
-38.620020517269701
 30
0.0
  0
VERTEX
  5
AE8
  8
DATA
  6
CONTINUOUS
 62
     7
 10
-49.566523276508789
 20
-38.619088320982563
 30
0.0
  0
VERTEX
  5
AE9
  8
DATA
  6
CONTINUOUS
 62
     7
 10
-49.581399474645863
 20
-38.618188833337072
 30
0.0
  0
VERTEX
  5
AEA
  8
DATA
  6
CONTINUOUS
 62
     7
 10
-49.596308716131247
 20
-38.617322054333222
 30
0.0
  0
VERTEX
  5
AEB
  8
DATA
  6
CONTINUOUS
 62
     7
 10
-49.611251000964963
 20
-38.616487983971041
 30
0.0
  0
VERTEX
  5
AEC
  8
DATA
  6
CONTINUOUS
 62
     7
 10
-49.626226329147023
 20
-38.615686622250507
 30
0.0
  0
VERTEX
  5
AED
  8
DATA
  6
CONTINUOUS
 62
     7
 10
-49.641234700677401
 20
-38.614917969171643
 30
0.0
  0
VERTEX
  5
AEE
  8
DATA
  6
CONTINUOUS
 62
     7
 10
-49.656276115556103
 20
-38.614182024734419
 30
0.0
  0
VERTEX
  5
AEF
  8
DATA
  6
CONTINUOUS
 62
     7
 10
-49.671350573783123
 20
-38.613478788938849
 30
0.0
  0
VERTEX
  5
AF0
  8
DATA
  6
CONTINUOUS
 62
     7
 10
-49.686458075358473
 20
-38.612808261784942
 30
0.0
  0
VERTEX
  5
AF1
  8
DATA
  6
CONTINUOUS
 62
     7
 10
-49.701598620282176
 20
-38.612170443272689
 30
0.0
  0
VERTEX
  5
AF2
  8
DATA
  6
CONTINUOUS
 62
     7
 10
-49.716772208554183
 20
-38.611565333402083
 30
0.0
  0
VERTEX
  5
AF3
  8
DATA
  6
CONTINUOUS
 62
     7
 10
-49.731978840174527
 20
-38.610992932173133
 30
0.0
  0
VERTEX
  5
AF4
  8
DATA
  6
CONTINUOUS
 62
     7
 10
-49.74721851514321
 20
-38.610453239585851
 30
0.0
  0
VERTEX
  5
AF5
  8
DATA
  6
CONTINUOUS
 62
     7
 10
-49.762491233460182
 20
-38.609946255640203
 30
0.0
  0
VERTEX
  5
AF6
  8
DATA
  6
CONTINUOUS
 62
     7
 10
-49.77779699512552
 20
-38.60947198033621
 30
0.0
  0
VERTEX
  5
AF7
  8
DATA
  6
CONTINUOUS
 62
     7
 10
-49.793135800139183
 20
-38.609030413673892
 30
0.0
  0
VERTEX
  5
AF8
  8
DATA
  6
CONTINUOUS
 62
     7
 10
-49.808507648501148
 20
-38.608621555653208
 30
0.0
  0
VERTEX
  5
AF9
  8
DATA
  6
CONTINUOUS
 62
     7
 10
-49.823912540211467
 20
-38.608245406274172
 30
0.0
  0
VERTEX
  5
AFA
  8
DATA
  6
CONTINUOUS
 62
     7
 10
-49.839350475270123
 20
-38.607901965536811
 30
0.0
  0
VERTEX
  5
AFB
  8
DATA
  6
CONTINUOUS
 62
     7
 10
-49.854821453677083
 20
-38.607591233441099
 30
0.0
  0
VERTEX
  5
AFC
  8
DATA
  6
CONTINUOUS
 62
     7
 10
-49.870325475432388
 20
-38.607313209987041
 30
0.0
  0
VERTEX
  5
AFD
  8
DATA
  6
CONTINUOUS
 62
     7
 10
-49.88586254053601
 20
-38.60706789517463
 30
0.0
  0
VERTEX
  5
AFE
  8
DATA
  6
CONTINUOUS
 62
     7
 10
-49.901432648987956
 20
-38.606855289003882
 30
0.0
  0
VERTEX
  5
AFF
  8
DATA
  6
CONTINUOUS
 62
     7
 10
-49.917035800788241
 20
-38.606675391474788
 30
0.0
  0
VERTEX
  5
B00
  8
DATA
  6
CONTINUOUS
 62
     7
 10
-49.93267199593685
 20
-38.606528202587342
 30
0.0
  0
VERTEX
  5
B01
  8
DATA
  6
CONTINUOUS
 62
     7
 10
-49.948341234433791
 20
-38.60641372234155
 30
0.0
  0
VERTEX
  5
B02
  8
DATA
  6
CONTINUOUS
 62
     7
 10
-49.964043516279048
 20
-38.606331950737413
 30
0.0
  0
VERTEX
  5
B03
  8
DATA
  6
CONTINUOUS
 62
     7
 10
-49.979778841472651
 20
-38.606282887774931
 30
0.0
  0
VERTEX
  5
B04
  8
DATA
  6
CONTINUOUS
 62
     7
 10
-49.995547210014578
 20
-38.606266533454097
 30
0.0
  0
VERTEX
  5
B05
  8
DATA
  6
CONTINUOUS
 62
     7
 10
-49.995547210014578
 20
-38.606266533454097
 30
0.0
  0
VERTEX
  5
B06
  8
DATA
  6
CONTINUOUS
 62
     7
 10
-50.011315578556498
 20
-38.606282887774931
 30
0.0
  0
VERTEX
  5
B07
  8
DATA
  6
CONTINUOUS
 62
     7
 10
-50.027050903750101
 20
-38.606331950737413
 30
0.0
  0
VERTEX
  5
B08
  8
DATA
  6
CONTINUOUS
 62
     7
 10
-50.042753185595359
 20
-38.60641372234155
 30
0.0
  0
VERTEX
  5
B09
  8
DATA
  6
CONTINUOUS
 62
     7
 10
-50.058422424092313
 20
-38.606528202587342
 30
0.0
  0
VERTEX
  5
B0A
  8
DATA
  6
CONTINUOUS
 62
     7
 10
-50.074058619240922
 20
-38.606675391474788
 30
0.0
  0
VERTEX
  5
B0B
  8
DATA
  6
CONTINUOUS
 62
     7
 10
-50.0896617710412
 20
-38.606855289003882
 30
0.0
  0
VERTEX
  5
B0C
  8
DATA
  6
CONTINUOUS
 62
     7
 10
-50.105231879493147
 20
-38.60706789517463
 30
0.0
  0
VERTEX
  5
B0D
  8
DATA
  6
CONTINUOUS
 62
     7
 10
-50.120768944596783
 20
-38.607313209987041
 30
0.0
  0
VERTEX
  5
B0E
  8
DATA
  6
CONTINUOUS
 62
     7
 10
-50.136272966352081
 20
-38.607591233441099
 30
0.0
  0
VERTEX
  5
B0F
  8
DATA
  6
CONTINUOUS
 62
     7
 10
-50.151743944759033
 20
-38.607901965536811
 30
0.0
  0
VERTEX
  5
B10
  8
DATA
  6
CONTINUOUS
 62
     7
 10
-50.167181879817669
 20
-38.608245406274172
 30
0.0
  0
VERTEX
  5
B11
  8
DATA
  6
CONTINUOUS
 62
     7
 10
-50.182586771527987
 20
-38.608621555653208
 30
0.0
  0
VERTEX
  5
B12
  8
DATA
  6
CONTINUOUS
 62
     7
 10
-50.19795861988996
 20
-38.609030413673892
 30
0.0
  0
VERTEX
  5
B13
  8
DATA
  6
CONTINUOUS
 62
     7
 10
-50.213297424903637
 20
-38.60947198033621
 30
0.0
  0
VERTEX
  5
B14
  8
DATA
  6
CONTINUOUS
 62
     7
 10
-50.228603186568961
 20
-38.609946255640203
 30
0.0
  0
VERTEX
  5
B15
  8
DATA
  6
CONTINUOUS
 62
     7
 10
-50.243875904885961
 20
-38.610453239585851
 30
0.0
  0
VERTEX
  5
B16
  8
DATA
  6
CONTINUOUS
 62
     7
 10
-50.259115579854623
 20
-38.610992932173133
 30
0.0
  0
VERTEX
  5
B17
  8
DATA
  6
CONTINUOUS
 62
     7
 10
-50.274322211474981
 20
-38.611565333402083
 30
0.0
  0
VERTEX
  5
B18
  8
DATA
  6
CONTINUOUS
 62
     7
 10
-50.28949579974698
 20
-38.612170443272689
 30
0.0
  0
VERTEX
  5
B19
  8
DATA
  6
CONTINUOUS
 62
     7
 10
-50.304636344670683
 20
-38.612808261784942
 30
0.0
  0
VERTEX
  5
B1A
  8
DATA
  6
CONTINUOUS
 62
     7
 10
-50.319743846246041
 20
-38.613478788938849
 30
0.0
  0
VERTEX
  5
B1B
  8
DATA
  6
CONTINUOUS
 62
     7
 10
-50.334818304473067
 20
-38.614182024734419
 30
0.0
  0
VERTEX
  5
B1C
  8
DATA
  6
CONTINUOUS
 62
     7
 10
-50.349859719351748
 20
-38.614917969171643
 30
0.0
  0
VERTEX
  5
B1D
  8
DATA
  6
CONTINUOUS
 62
     7
 10
-50.36486809088214
 20
-38.615686622250507
 30
0.0
  0
VERTEX
  5
B1E
  8
DATA
  6
CONTINUOUS
 62
     7
 10
-50.37984341906418
 20
-38.616487983971041
 30
0.0
  0
VERTEX
  5
B1F
  8
DATA
  6
CONTINUOUS
 62
     7
 10
-50.394785703897888
 20
-38.617322054333222
 30
0.0
  0
VERTEX
  5
B20
  8
DATA
  6
CONTINUOUS
 62
     7
 10
-50.409694945383293
 20
-38.618188833337072
 30
0.0
  0
VERTEX
  5
B21
  8
DATA
  6
CONTINUOUS
 62
     7
 10
-50.42457114352036
 20
-38.619088320982563
 30
0.0
  0
VERTEX
  5
B22
  8
DATA
  6
CONTINUOUS
 62
     7
 10
-50.439414298309082
 20
-38.620020517269701
 30
0.0
  0
VERTEX
  5
B23
  8
DATA
  6
CONTINUOUS
 62
     7
 10
-50.454224409749493
 20
-38.620985422198487
 30
0.0
  0
VERTEX
  5
B24
  8
DATA
  6
CONTINUOUS
 62
     7
 10
-50.469001477841573
 20
-38.621983035768949
 30
0.0
  0
VERTEX
  5
B25
  8
DATA
  6
CONTINUOUS
 62
     7
 10
-50.483745502585307
 20
-38.623013357981037
 30
0.0
  0
VERTEX
  5
B26
  8
DATA
  6
CONTINUOUS
 62
     7
 10
-50.498456483980718
 20
-38.624076388834808
 30
0.0
  0
VERTEX
  5
B27
  8
DATA
  6
CONTINUOUS
 62
     7
 10
-50.513134422027832
 20
-38.625172128330227
 30
0.0
  0
VERTEX
  5
B28
  8
DATA
  6
CONTINUOUS
 62
     7
 10
-50.527779316726573
 20
-38.626300576467287
 30
0.0
  0
VERTEX
  5
B29
  8
DATA
  6
CONTINUOUS
 62
     7
 10
-50.542391168077032
 20
-38.627461733246022
 30
0.0
  0
VERTEX
  5
B2A
  8
DATA
  6
CONTINUOUS
 62
     7
 10
-50.556969976079131
 20
-38.628655598666398
 30
0.0
  0
VERTEX
  5
B2B
  8
DATA
  6
CONTINUOUS
 62
     7
 10
-50.571515740732913
 20
-38.629882172728422
 30
0.0
  0
VERTEX
  5
B2C
  8
DATA
  6
CONTINUOUS
 62
     7
 10
-50.586028462038357
 20
-38.631141455432122
 30
0.0
  0
VERTEX
  5
B2D
  8
DATA
  6
CONTINUOUS
 62
     7
 10
-50.600508139995483
 20
-38.632433446777462
 30
0.0
  0
VERTEX
  5
B2E
  8
DATA
  6
CONTINUOUS
 62
     7
 10
-50.614954774604271
 20
-38.633758146764457
 30
0.0
  0
VERTEX
  5
B2F
  8
DATA
  6
CONTINUOUS
 62
     7
 10
-50.629368365864742
 20
-38.635115555393092
 30
0.0
  0
VERTEX
  5
B30
  8
DATA
  6
CONTINUOUS
 62
     7
 10
-50.643748913776882
 20
-38.636505672663397
 30
0.0
  0
VERTEX
  5
B31
  8
DATA
  6
CONTINUOUS
 62
     7
 10
-50.658096418340683
 20
-38.637928498575349
 30
0.0
  0
VERTEX
  5
B32
  8
DATA
  6
CONTINUOUS
 62
     7
 10
-50.672410879556168
 20
-38.63938403312897
 30
0.0
  0
VERTEX
  5
B33
  8
DATA
  6
CONTINUOUS
 62
     7
 10
-50.686692297423328
 20
-38.640872276324231
 30
0.0
  0
VERTEX
  5
B34
  8
DATA
  6
CONTINUOUS
 62
     7
 10
-50.700940671942142
 20
-38.642393228161147
 30
0.0
  0
VERTEX
  5
B35
  8
DATA
  6
CONTINUOUS
 62
     7
 10
-50.715156003112639
 20
-38.643946888639732
 30
0.0
  0
VERTEX
  5
B36
  8
DATA
  6
CONTINUOUS
 62
     7
 10
-50.729338290934813
 20
-38.645533257759972
 30
0.0
  0
VERTEX
  5
B37
  8
DATA
  6
CONTINUOUS
 62
     7
 10
-50.74348753540864
 20
-38.647152335521852
 30
0.0
  0
VERTEX
  5
B38
  8
DATA
  6
CONTINUOUS
 62
     7
 10
-50.757603736534158
 20
-38.648804121925373
 30
0.0
  0
VERTEX
  5
B39
  8
DATA
  6
CONTINUOUS
 62
     7
 10
-50.771686894311337
 20
-38.650488616970563
 30
0.0
  0
VERTEX
  5
B3A
  8
DATA
  6
CONTINUOUS
 62
     7
 10
-50.785737008740199
 20
-38.652205820657407
 30
0.0
  0
VERTEX
  5
B3B
  8
DATA
  6
CONTINUOUS
 62
     7
 10
-50.799754079820723
 20
-38.653955732985906
 30
0.0
  0
VERTEX
  5
B3C
  8
DATA
  6
CONTINUOUS
 62
     7
 10
-50.813738107552922
 20
-38.65573835395606
 30
0.0
  0
VERTEX
  5
B3D
  8
DATA
  6
CONTINUOUS
 62
     7
 10
-50.82768909193679
 20
-38.657553683567869
 30
0.0
  0
VERTEX
  5
B3E
  8
DATA
  6
CONTINUOUS
 62
     7
 10
-50.841607032972348
 20
-38.659401721821332
 30
0.0
  0
VERTEX
  5
B3F
  8
DATA
  6
CONTINUOUS
 62
     7
 10
-50.855491930659539
 20
-38.661282468716458
 30
0.0
  0
VERTEX
  5
B40
  8
DATA
  6
CONTINUOUS
 62
     7
 10
-50.869343784998442
 20
-38.663195924253223
 30
0.0
  0
VERTEX
  5
B41
  8
DATA
  6
CONTINUOUS
 62
     7
 10
-50.883162595988992
 20
-38.665142088431651
 30
0.0
  0
VERTEX
  5
B42
  8
DATA
  6
CONTINUOUS
 62
     7
 10
-50.896948363631218
 20
-38.667120961251719
 30
0.0
  0
VERTEX
  5
B43
  8
DATA
  6
CONTINUOUS
 62
     7
 10
-50.910701087925119
 20
-38.669132542713449
 30
0.0
  0
VERTEX
  5
B44
  8
DATA
  6
CONTINUOUS
 62
     7
 10
-50.924420768870689
 20
-38.671176832816847
 30
0.0
  0
VERTEX
  5
B45
  8
DATA
  6
CONTINUOUS
 62
     7
 10
-50.938107406467942
 20
-38.673253831561887
 30
0.0
  0
VERTEX
  5
B46
  8
DATA
  6
CONTINUOUS
 62
     7
 10
-50.938107406467942
 20
-38.673253831561887
 30
0.0
  0
VERTEX
  5
B47
  8
DATA
  6
CONTINUOUS
 62
     7
 10
-50.951732384337781
 20
-38.675359156821521
 30
0.0
  0
VERTEX
  5
B48
  8
DATA
  6
CONTINUOUS
 62
     7
 10
-50.965267086101122
 20
-38.677488426468678
 30
0.0
  0
VERTEX
  5
B49
  8
DATA
  6
CONTINUOUS
 62
     7
 10
-50.978711511757993
 20
-38.679641640503398
 30
0.0
  0
VERTEX
  5
B4A
  8
DATA
  6
CONTINUOUS
 62
     7
 10
-50.992065661308366
 20
-38.681818798925647
 30
0.0
  0
VERTEX
  5
B4B
  8
DATA
  6
CONTINUOUS
 62
     7
 10
-51.005329534752278
 20
-38.684019901735432
 30
0.0
  0
VERTEX
  5
B4C
  8
DATA
  6
CONTINUOUS
 62
     7
 10
-51.018503132089691
 20
-38.68624494893276
 30
0.0
  0
VERTEX
  5
B4D
  8
DATA
  6
CONTINUOUS
 62
     7
 10
-51.031586453320607
 20
-38.688493940517617
 30
0.0
  0
VERTEX
  5
B4E
  8
DATA
  6
CONTINUOUS
 62
     7
 10
-51.04457949844506
 20
-38.690766876490017
 30
0.0
  0
VERTEX
  5
B4F
  8
DATA
  6
CONTINUOUS
 62
     7
 10
-51.057482267463023
 20
-38.693063756849959
 30
0.0
  0
VERTEX
  5
B50
  8
DATA
  6
CONTINUOUS
 62
     7
 10
-51.070294760374502
 20
-38.69538458159743
 30
0.0
  0
VERTEX
  5
B51
  8
DATA
  6
CONTINUOUS
 62
     7
 10
-51.083016977179483
 20
-38.697729350732452
 30
0.0
  0
VERTEX
  5
B52
  8
DATA
  6
CONTINUOUS
 62
     7
 10
-51.09564891787798
 20
-38.700098064254988
 30
0.0
  0
VERTEX
  5
B53
  8
DATA
  6
CONTINUOUS
 62
     7
 10
-51.108190582469987
 20
-38.702490722165066
 30
0.0
  0
VERTEX
  5
B54
  8
DATA
  6
CONTINUOUS
 62
     7
 10
-51.120641970955532
 20
-38.704907324462702
 30
0.0
  0
VERTEX
  5
B55
  8
DATA
  6
CONTINUOUS
 62
     7
 10
-51.133003083334579
 20
-38.70734787114786
 30
0.0
  0
VERTEX
  5
B56
  8
DATA
  6
CONTINUOUS
 62
     7
 10
-51.145273919607142
 20
-38.709812362220561
 30
0.0
  0
VERTEX
  5
B57
  8
DATA
  6
CONTINUOUS
 62
     7
 10
-51.15745447977325
 20
-38.712300797680797
 30
0.0
  0
VERTEX
  5
B58
  8
DATA
  6
CONTINUOUS
 62
     7
 10
-51.16954476383281
 20
-38.714813177528569
 30
0.0
  0
VERTEX
  5
B59
  8
DATA
  6
CONTINUOUS
 62
     7
 10
-51.18154477178593
 20
-38.717349501763891
 30
0.0
  0
VERTEX
  5
B5A
  8
DATA
  6
CONTINUOUS
 62
     7
 10
-51.193454503632552
 20
-38.719909770386721
 30
0.0
  0
VERTEX
  5
B5B
  8
DATA
  6
CONTINUOUS
 62
     7
 10
-51.20527395937269
 20
-38.722493983397108
 30
0.0
  0
VERTEX
  5
B5C
  8
DATA
  6
CONTINUOUS
 62
     7
 10
-51.217003139006337
 20
-38.72510214079503
 30
0.0
  0
VERTEX
  5
B5D
  8
DATA
  6
CONTINUOUS
 62
     7
 10
-51.228642042533522
 20
-38.727734242580489
 30
0.0
  0
VERTEX
  5
B5E
  8
DATA
  6
CONTINUOUS
 62
     7
 10
-51.240190669954202
 20
-38.73039028875349
 30
0.0
  0
VERTEX
  5
B5F
  8
DATA
  6
CONTINUOUS
 62
     7
 10
-51.251649021268378
 20
-38.73307027931402
 30
0.0
  0
VERTEX
  5
B60
  8
DATA
  6
CONTINUOUS
 62
     7
 10
-51.263017096476091
 20
-38.735774214262101
 30
0.0
  0
VERTEX
  5
B61
  8
DATA
  6
CONTINUOUS
 62
     7
 10
-51.274294895577327
 20
-38.738502093597717
 30
0.0
  0
VERTEX
  5
B62
  8
DATA
  6
CONTINUOUS
 62
     7
 10
-51.285482418572073
 20
-38.741253917320869
 30
0.0
  0
VERTEX
  5
B63
  8
DATA
  6
CONTINUOUS
 62
     7
 10
-51.296579665460349
 20
-38.744029685431549
 30
0.0
  0
VERTEX
  5
B64
  8
DATA
  6
CONTINUOUS
 62
     7
 10
-51.307586636242107
 20
-38.746829397929773
 30
0.0
  0
VERTEX
  5
B65
  8
DATA
  6
CONTINUOUS
 62
     7
 10
-51.318503330917402
 20
-38.749653054815532
 30
0.0
  0
VERTEX
  5
B66
  8
DATA
  6
CONTINUOUS
 62
     7
 10
-51.329329749486199
 20
-38.752500656088827
 30
0.0
  0
VERTEX
  5
B67
  8
DATA
  6
CONTINUOUS
 62
     7
 10
-51.340065891948527
 20
-38.755372201749672
 30
0.0
  0
VERTEX
  5
B68
  8
DATA
  6
CONTINUOUS
 62
     7
 10
-51.350711758304357
 20
-38.758267691798032
 30
0.0
  0
VERTEX
  5
B69
  8
DATA
  6
CONTINUOUS
 62
     7
 10
-51.361267348553717
 20
-38.761187126233942
 30
0.0
  0
VERTEX
  5
B6A
  8
DATA
  6
CONTINUOUS
 62
     7
 10
-51.371732662696573
 20
-38.764130505057388
 30
0.0
  0
VERTEX
  5
B6B
  8
DATA
  6
CONTINUOUS
 62
     7
 10
-51.382107700732959
 20
-38.767097828268383
 30
0.0
  0
VERTEX
  5
B6C
  8
DATA
  6
CONTINUOUS
 62
     7
 10
-51.392392462662848
 20
-38.770089095866901
 30
0.0
  0
VERTEX
  5
B6D
  8
DATA
  6
CONTINUOUS
 62
     7
 10
-51.402586948486253
 20
-38.773104307852961
 30
0.0
  0
VERTEX
  5
B6E
  8
DATA
  6
CONTINUOUS
 62
     7
 10
-51.412691158203181
 20
-38.776143464226543
 30
0.0
  0
VERTEX
  5
B6F
  8
DATA
  6
CONTINUOUS
 62
     7
 10
-51.422705091813611
 20
-38.779206564987682
 30
0.0
  0
VERTEX
  5
B70
  8
DATA
  6
CONTINUOUS
 62
     7
 10
-51.432628749317573
 20
-38.78229361013635
 30
0.0
  0
VERTEX
  5
B71
  8
DATA
  6
CONTINUOUS
 62
     7
 10
-51.442462130715043
 20
-38.78540459967256
 30
0.0
  0
VERTEX
  5
B72
  8
DATA
  6
CONTINUOUS
 62
     7
 10
-51.45220523600603
 20
-38.788539533596321
 30
0.0
  0
VERTEX
  5
B73
  8
DATA
  6
CONTINUOUS
 62
     7
 10
-51.461858065190533
 20
-38.79169841190761
 30
0.0
  0
VERTEX
  5
B74
  8
DATA
  6
CONTINUOUS
 62
     7
 10
-51.471420618268539
 20
-38.794881234606407
 30
0.0
  0
VERTEX
  5
B75
  8
DATA
  6
CONTINUOUS
 62
     7
 10
-51.480892895240082
 20
-38.798088001692769
 30
0.0
  0
VERTEX
  5
B76
  8
DATA
  6
CONTINUOUS
 62
     7
 10
-51.49027489610512
 20
-38.801318713166673
 30
0.0
  0
VERTEX
  5
B77
  8
DATA
  6
CONTINUOUS
 62
     7
 10
-51.499566620863668
 20
-38.804573369028098
 30
0.0
  0
VERTEX
  5
B78
  8
DATA
  6
CONTINUOUS
 62
     7
 10
-51.50876806951576
 20
-38.807851969277067
 30
0.0
  0
VERTEX
  5
B79
  8
DATA
  6
CONTINUOUS
 62
     7
 10
-51.517879242061362
 20
-38.811154513913593
 30
0.0
  0
VERTEX
  5
B7A
  8
DATA
  6
CONTINUOUS
 62
     7
 10
-51.526900138500451
 20
-38.814481002937633
 30
0.0
  0
VERTEX
  5
B7B
  8
DATA
  6
CONTINUOUS
 62
     7
 10
-51.535830758833072
 20
-38.817831436349209
 30
0.0
  0
VERTEX
  5
B7C
  8
DATA
  6
CONTINUOUS
 62
     7
 10
-51.544671103059223
 20
-38.821205814148328
 30
0.0
  0
VERTEX
  5
B7D
  8
DATA
  6
CONTINUOUS
 62
     7
 10
-51.553421171178861
 20
-38.82460413633499
 30
0.0
  0
VERTEX
  5
B7E
  8
DATA
  6
CONTINUOUS
 62
     7
 10
-51.562080963192017
 20
-38.828026402909188
 30
0.0
  0
VERTEX
  5
B7F
  8
DATA
  6
CONTINUOUS
 62
     7
 10
-51.570650479098703
 20
-38.831472613870922
 30
0.0
  0
VERTEX
  5
B80
  8
DATA
  6
CONTINUOUS
 62
     7
 10
-51.579129718898891
 20
-38.834942769220177
 30
0.0
  0
VERTEX
  5
B81
  8
DATA
  6
CONTINUOUS
 62
     7
 10
-51.587518682592609
 20
-38.838436868957011
 30
0.0
  0
VERTEX
  5
B82
  8
DATA
  6
CONTINUOUS
 62
     7
 10
-51.595817370179823
 20
-38.841954913081352
 30
0.0
  0
VERTEX
  5
B83
  8
DATA
  6
CONTINUOUS
 62
     7
 10
-51.604025781660567
 20
-38.845496901593229
 30
0.0
  0
VERTEX
  5
B84
  8
DATA
  6
CONTINUOUS
 62
     7
 10
-51.612143917034842
 20
-38.849062834492649
 30
0.0
  0
VERTEX
  5
B85
  8
DATA
  6
CONTINUOUS
 62
     7
 10
-51.620171776302612
 20
-38.852652711779612
 30
0.0
  0
VERTEX
  5
B86
  8
DATA
  6
CONTINUOUS
 62
     7
 10
-51.628109359463892
 20
-38.856266533454097
 30
0.0
  0
VERTEX
  5
B87
  8
DATA
  6
CONTINUOUS
 62
     7
 10
-51.628109359463892
 20
-38.856266533454097
 30
0.0
  0
VERTEX
  5
B88
  8
DATA
  6
CONTINUOUS
 62
     7
 10
-51.635940144844533
 20
-38.85989670944943
 30
0.0
  0
VERTEX
  5
B89
  8
DATA
  6
CONTINUOUS
 62
     7
 10
-51.643647610770351
 20
-38.863535649698868
 30
0.0
  0
VERTEX
  5
B8A
  8
DATA
  6
CONTINUOUS
 62
     7
 10
-51.651231757241362
 20
-38.867183354202432
 30
0.0
  0
VERTEX
  5
B8B
  8
DATA
  6
CONTINUOUS
 62
     7
 10
-51.658692584257572
 20
-38.8708398229601
 30
0.0
  0
VERTEX
  5
B8C
  8
DATA
  6
CONTINUOUS
 62
     7
 10
-51.666030091818953
 20
-38.874505055971888
 30
0.0
  0
VERTEX
  5
B8D
  8
DATA
  6
CONTINUOUS
 62
     7
 10
-51.673244279925498
 20
-38.87817905323778
 30
0.0
  0
VERTEX
  5
B8E
  8
DATA
  6
CONTINUOUS
 62
     7
 10
-51.680335148577271
 20
-38.881861814757812
 30
0.0
  0
VERTEX
  5
B8F
  8
DATA
  6
CONTINUOUS
 62
     7
 10
-51.687302697774221
 20
-38.885553340531942
 30
0.0
  0
VERTEX
  5
B90
  8
DATA
  6
CONTINUOUS
 62
     7
 10
-51.694146927516357
 20
-38.889253630560212
 30
0.0
  0
VERTEX
  5
B91
  8
DATA
  6
CONTINUOUS
 62
     7
 10
-51.700867837803671
 20
-38.892962684842573
 30
0.0
  0
VERTEX
  5
B92
  8
DATA
  6
CONTINUOUS
 62
     7
 10
-51.707465428636183
 20
-38.896680503379052
 30
0.0
  0
VERTEX
  5
B93
  8
DATA
  6
CONTINUOUS
 62
     7
 10
-51.71393970001386
 20
-38.900407086169672
 30
0.0
  0
VERTEX
  5
B94
  8
DATA
  6
CONTINUOUS
 62
     7
 10
-51.72029065193675
 20
-38.904142433214403
 30
0.0
  0
VERTEX
  5
B95
  8
DATA
  6
CONTINUOUS
 62
     7
 10
-51.726518284404818
 20
-38.907886544513232
 30
0.0
  0
VERTEX
  5
B96
  8
DATA
  6
CONTINUOUS
 62
     7
 10
-51.732622597418072
 20
-38.911639420066187
 30
0.0
  0
VERTEX
  5
B97
  8
DATA
  6
CONTINUOUS
 62
     7
 10
-51.738603590976503
 20
-38.915401059873268
 30
0.0
  0
VERTEX
  5
B98
  8
DATA
  6
CONTINUOUS
 62
     7
 10
-51.74446126508014
 20
-38.919171463934461
 30
0.0
  0
VERTEX
  5
B99
  8
DATA
  6
CONTINUOUS
 62
     7
 10
-51.750195619728949
 20
-38.922950632249773
 30
0.0
  0
VERTEX
  5
B9A
  8
DATA
  6
CONTINUOUS
 62
     7
 10
-51.755806654922949
 20
-38.926738564819189
 30
0.0
  0
VERTEX
  5
B9B
  8
DATA
  6
CONTINUOUS
 62
     7
 10
-51.761294370662128
 20
-38.930535261642731
 30
0.0
  0
VERTEX
  5
B9C
  8
DATA
  6
CONTINUOUS
 62
     7
 10
-51.766658766946499
 20
-38.934340722720393
 30
0.0
  0
VERTEX
  5
B9D
  8
DATA
  6
CONTINUOUS
 62
     7
 10
-51.771899843776083
 20
-38.938154948052173
 30
0.0
  0
VERTEX
  5
B9E
  8
DATA
  6
CONTINUOUS
 62
     7
 10
-51.77701760115081
 20
-38.94197793763805
 30
0.0
  0
VERTEX
  5
B9F
  8
DATA
  6
CONTINUOUS
 62
     7
 10
-51.78201203907075
 20
-38.945809691478061
 30
0.0
  0
VERTEX
  5
BA0
  8
DATA
  6
CONTINUOUS
 62
     7
 10
-51.786883157535861
 20
-38.94965020957217
 30
0.0
  0
VERTEX
  5
BA1
  8
DATA
  6
CONTINUOUS
 62
     7
 10
-51.791630956546172
 20
-38.953499491920432
 30
0.0
  0
VERTEX
  5
BA2
  8
DATA
  6
CONTINUOUS
 62
     7
 10
-51.796255436101681
 20
-38.957357538522771
 30
0.0
  0
VERTEX
  5
BA3
  8
DATA
  6
CONTINUOUS
 62
     7
 10
-51.800756596202348
 20
-38.96122434937925
 30
0.0
  0
VERTEX
  5
BA4
  8
DATA
  6
CONTINUOUS
 62
     7
 10
-51.805134436848213
 20
-38.965099924489849
 30
0.0
  0
VERTEX
  5
BA5
  8
DATA
  6
CONTINUOUS
 62
     7
 10
-51.809388958039257
 20
-38.968984263854551
 30
0.0
  0
VERTEX
  5
BA6
  8
DATA
  6
CONTINUOUS
 62
     7
 10
-51.813520159775507
 20
-38.972877367473373
 30
0.0
  0
VERTEX
  5
BA7
  8
DATA
  6
CONTINUOUS
 62
     7
 10
-51.817528042056942
 20
-38.976779235346321
 30
0.0
  0
VERTEX
  5
BA8
  8
DATA
  6
CONTINUOUS
 62
     7
 10
-51.821412604883562
 20
-38.980689867473359
 30
0.0
  0
VERTEX
  5
BA9
  8
DATA
  6
CONTINUOUS
 62
     7
 10
-51.825173848255361
 20
-38.984609263854551
 30
0.0
  0
VERTEX
  5
BAA
  8
DATA
  6
CONTINUOUS
 62
     7
 10
-51.828811772172358
 20
-38.988537424489849
 30
0.0
  0
VERTEX
  5
BAB
  8
DATA
  6
CONTINUOUS
 62
     7
 10
-51.832326376634533
 20
-38.99247434937925
 30
0.0
  0
VERTEX
  5
BAC
  8
DATA
  6
CONTINUOUS
 62
     7
 10
-51.835717661641887
 20
-38.996420038522771
 30
0.0
  0
VERTEX
  5
BAD
  8
DATA
  6
CONTINUOUS
 62
     7
 10
-51.838985627194432
 20
-39.000374491920432
 30
0.0
  0
VERTEX
  5
BAE
  8
DATA
  6
CONTINUOUS
 62
     7
 10
-51.84213027329217
 20
-39.00433770957217
 30
0.0
  0
VERTEX
  5
BAF
  8
DATA
  6
CONTINUOUS
 62
     7
 10
-51.845151599935093
 20
-39.008309691478061
 30
0.0
  0
VERTEX
  5
BB0
  8
DATA
  6
CONTINUOUS
 62
     7
 10
-51.848049607123201
 20
-39.01229043763805
 30
0.0
  0
VERTEX
  5
BB1
  8
DATA
  6
CONTINUOUS
 62
     7
 10
-51.850824294856501
 20
-39.016279948052173
 30
0.0
  0
VERTEX
  5
BB2
  8
DATA
  6
CONTINUOUS
 62
     7
 10
-51.853475663134972
 20
-39.020278222720393
 30
0.0
  0
VERTEX
  5
BB3
  8
DATA
  6
CONTINUOUS
 62
     7
 10
-51.85600371195865
 20
-39.024285261642731
 30
0.0
  0
VERTEX
  5
BB4
  8
DATA
  6
CONTINUOUS
 62
     7
 10
-51.858408441327512
 20
-39.028301064819189
 30
0.0
  0
VERTEX
  5
BB5
  8
DATA
  6
CONTINUOUS
 62
     7
 10
-51.860689851241538
 20
-39.032325632249773
 30
0.0
  0
VERTEX
  5
BB6
  8
DATA
  6
CONTINUOUS
 62
     7
 10
-51.862847941700778
 20
-39.036358963934461
 30
0.0
  0
VERTEX
  5
BB7
  8
DATA
  6
CONTINUOUS
 62
     7
 10
-51.864882712705203
 20
-39.040401059873268
 30
0.0
  0
VERTEX
  5
BB8
  8
DATA
  6
CONTINUOUS
 62
     7
 10
-51.866794164254799
 20
-39.044451920066187
 30
0.0
  0
VERTEX
  5
BB9
  8
DATA
  6
CONTINUOUS
 62
     7
 10
-51.868582296349601
 20
-39.048511544513232
 30
0.0
  0
VERTEX
  5
BBA
  8
DATA
  6
CONTINUOUS
 62
     7
 10
-51.870247108989581
 20
-39.052579933214403
 30
0.0
  0
VERTEX
  5
BBB
  8
DATA
  6
CONTINUOUS
 62
     7
 10
-51.871788602174739
 20
-39.056657086169672
 30
0.0
  0
VERTEX
  5
BBC
  8
DATA
  6
CONTINUOUS
 62
     7
 10
-51.873206775905103
 20
-39.060743003379052
 30
0.0
  0
VERTEX
  5
BBD
  8
DATA
  6
CONTINUOUS
 62
     7
 10
-51.874501630180639
 20
-39.064837684842573
 30
0.0
  0
VERTEX
  5
BBE
  8
DATA
  6
CONTINUOUS
 62
     7
 10
-51.875673165001359
 20
-39.068941130560212
 30
0.0
  0
VERTEX
  5
BBF
  8
DATA
  6
CONTINUOUS
 62
     7
 10
-51.876721380367272
 20
-39.073053340531942
 30
0.0
  0
VERTEX
  5
BC0
  8
DATA
  6
CONTINUOUS
 62
     7
 10
-51.877646276278369
 20
-39.077174314757812
 30
0.0
  0
VERTEX
  5
BC1
  8
DATA
  6
CONTINUOUS
 62
     7
 10
-51.878447852734652
 20
-39.08130405323778
 30
0.0
  0
VERTEX
  5
BC2
  8
DATA
  6
CONTINUOUS
 62
     7
 10
-51.879126109736127
 20
-39.085442555971888
 30
0.0
  0
VERTEX
  5
BC3
  8
DATA
  6
CONTINUOUS
 62
     7
 10
-51.879681047282787
 20
-39.0895898229601
 30
0.0
  0
VERTEX
  5
BC4
  8
DATA
  6
CONTINUOUS
 62
     7
 10
-51.880112665374632
 20
-39.093745854202432
 30
0.0
  0
VERTEX
  5
BC5
  8
DATA
  6
CONTINUOUS
 62
     7
 10
-51.880420964011662
 20
-39.097910649698868
 30
0.0
  0
VERTEX
  5
BC6
  8
DATA
  6
CONTINUOUS
 62
     7
 10
-51.880605943193892
 20
-39.10208420944943
 30
0.0
  0
VERTEX
  5
BC7
  8
DATA
  6
CONTINUOUS
 62
     7
 10
-51.880667602921278
 20
-39.106266533454097
 30
0.0
  0
VERTEX
  5
BC8
  8
DATA
  6
CONTINUOUS
 62
     7
 10
-51.880667602921278
 20
-39.106266533454097
 30
0.0
  0
VERTEX
  5
BC9
  8
DATA
  6
CONTINUOUS
 62
     7
 10
-51.880605943193892
 20
-39.110448857458771
 30
0.0
  0
VERTEX
  5
BCA
  8
DATA
  6
CONTINUOUS
 62
     7
 10
-51.880420964011662
 20
-39.114622417209347
 30
0.0
  0
VERTEX
  5
BCB
  8
DATA
  6
CONTINUOUS
 62
     7
 10
-51.880112665374632
 20
-39.118787212705783
 30
0.0
  0
VERTEX
  5
BCC
  8
DATA
  6
CONTINUOUS
 62
     7
 10
-51.879681047282787
 20
-39.122943243948122
 30
0.0
  0
VERTEX
  5
BCD
  8
DATA
  6
CONTINUOUS
 62
     7
 10
-51.879126109736127
 20
-39.127090510936327
 30
0.0
  0
VERTEX
  5
BCE
  8
DATA
  6
CONTINUOUS
 62
     7
 10
-51.878447852734652
 20
-39.131229013670414
 30
0.0
  0
VERTEX
  5
BCF
  8
DATA
  6
CONTINUOUS
 62
     7
 10
-51.877646276278369
 20
-39.135358752150388
 30
0.0
  0
VERTEX
  5
BD0
  8
DATA
  6
CONTINUOUS
 62
     7
 10
-51.876721380367272
 20
-39.139479726376258
 30
0.0
  0
VERTEX
  5
BD1
  8
DATA
  6
CONTINUOUS
 62
     7
 10
-51.875673165001359
 20
-39.143591936348002
 30
0.0
  0
VERTEX
  5
BD2
  8
DATA
  6
CONTINUOUS
 62
     7
 10
-51.874501630180639
 20
-39.147695382065628
 30
0.0
  0
VERTEX
  5
BD3
  8
DATA
  6
CONTINUOUS
 62
     7
 10
-51.873206775905103
 20
-39.151790063529127
 30
0.0
  0
VERTEX
  5
BD4
  8
DATA
  6
CONTINUOUS
 62
     7
 10
-51.871788602174739
 20
-39.155875980738529
 30
0.0
  0
VERTEX
  5
BD5
  8
DATA
  6
CONTINUOUS
 62
     7
 10
-51.870247108989581
 20
-39.159953133693811
 30
0.0
  0
VERTEX
  5
BD6
  8
DATA
  6
CONTINUOUS
 62
     7
 10
-51.868582296349601
 20
-39.164021522394961
 30
0.0
  0
VERTEX
  5
BD7
  8
DATA
  6
CONTINUOUS
 62
     7
 10
-51.866794164254799
 20
-39.168081146842013
 30
0.0
  0
VERTEX
  5
BD8
  8
DATA
  6
CONTINUOUS
 62
     7
 10
-51.864882712705203
 20
-39.172132007034932
 30
0.0
  0
VERTEX
  5
BD9
  8
DATA
  6
CONTINUOUS
 62
     7
 10
-51.862847941700778
 20
-39.176174102973732
 30
0.0
  0
VERTEX
  5
BDA
  8
DATA
  6
CONTINUOUS
 62
     7
 10
-51.860689851241538
 20
-39.180207434658421
 30
0.0
  0
VERTEX
  5
BDB
  8
DATA
  6
CONTINUOUS
 62
     7
 10
-51.858408441327512
 20
-39.184232002089011
 30
0.0
  0
VERTEX
  5
BDC
  8
DATA
  6
CONTINUOUS
 62
     7
 10
-51.85600371195865
 20
-39.188247805265469
 30
0.0
  0
VERTEX
  5
BDD
  8
DATA
  6
CONTINUOUS
 62
     7
 10
-51.853475663134972
 20
-39.192254844187808
 30
0.0
  0
VERTEX
  5
BDE
  8
DATA
  6
CONTINUOUS
 62
     7
 10
-51.850824294856501
 20
-39.196253118856042
 30
0.0
  0
VERTEX
  5
BDF
  8
DATA
  6
CONTINUOUS
 62
     7
 10
-51.848049607123201
 20
-39.20024262927015
 30
0.0
  0
VERTEX
  5
BE0
  8
DATA
  6
CONTINUOUS
 62
     7
 10
-51.845151599935093
 20
-39.204223375430161
 30
0.0
  0
VERTEX
  5
BE1
  8
DATA
  6
CONTINUOUS
 62
     7
 10
-51.84213027329217
 20
-39.208195357336017
 30
0.0
  0
VERTEX
  5
BE2
  8
DATA
  6
CONTINUOUS
 62
     7
 10
-51.838985627194432
 20
-39.212158574987782
 30
0.0
  0
VERTEX
  5
BE3
  8
DATA
  6
CONTINUOUS
 62
     7
 10
-51.835717661641887
 20
-39.216113028385422
 30
0.0
  0
VERTEX
  5
BE4
  8
DATA
  6
CONTINUOUS
 62
     7
 10
-51.832326376634533
 20
-39.220058717528943
 30
0.0
  0
VERTEX
  5
BE5
  8
DATA
  6
CONTINUOUS
 62
     7
 10
-51.828811772172358
 20
-39.223995642418352
 30
0.0
  0
VERTEX
  5
BE6
  8
DATA
  6
CONTINUOUS
 62
     7
 10
-51.825173848255361
 20
-39.227923803053642
 30
0.0
  0
VERTEX
  5
BE7
  8
DATA
  6
CONTINUOUS
 62
     7
 10
-51.821412604883562
 20
-39.23184319943482
 30
0.0
  0
VERTEX
  5
BE8
  8
DATA
  6
CONTINUOUS
 62
     7
 10
-51.817528042056942
 20
-39.235753831561887
 30
0.0
  0
VERTEX
  5
BE9
  8
DATA
  6
CONTINUOUS
 62
     7
 10
-51.813520159775507
 20
-39.23965569943482
 30
0.0
  0
VERTEX
  5
BEA
  8
DATA
  6
CONTINUOUS
 62
     7
 10
-51.809388958039257
 20
-39.243548803053642
 30
0.0
  0
VERTEX
  5
BEB
  8
DATA
  6
CONTINUOUS
 62
     7
 10
-51.805134436848213
 20
-39.247433142418352
 30
0.0
  0
VERTEX
  5
BEC
  8
DATA
  6
CONTINUOUS
 62
     7
 10
-51.800756596202348
 20
-39.251308717528943
 30
0.0
  0
VERTEX
  5
BED
  8
DATA
  6
CONTINUOUS
 62
     7
 10
-51.796255436101681
 20
-39.255175528385422
 30
0.0
  0
VERTEX
  5
BEE
  8
DATA
  6
CONTINUOUS
 62
     7
 10
-51.791630956546172
 20
-39.259033574987782
 30
0.0
  0
VERTEX
  5
BEF
  8
DATA
  6
CONTINUOUS
 62
     7
 10
-51.786883157535861
 20
-39.262882857336017
 30
0.0
  0
VERTEX
  5
BF0
  8
DATA
  6
CONTINUOUS
 62
     7
 10
-51.78201203907075
 20
-39.266723375430161
 30
0.0
  0
VERTEX
  5
BF1
  8
DATA
  6
CONTINUOUS
 62
     7
 10
-51.77701760115081
 20
-39.27055512927015
 30
0.0
  0
VERTEX
  5
BF2
  8
DATA
  6
CONTINUOUS
 62
     7
 10
-51.771899843776083
 20
-39.274378118856042
 30
0.0
  0
VERTEX
  5
BF3
  8
DATA
  6
CONTINUOUS
 62
     7
 10
-51.766658766946499
 20
-39.278192344187822
 30
0.0
  0
VERTEX
  5
BF4
  8
DATA
  6
CONTINUOUS
 62
     7
 10
-51.761294370662128
 20
-39.281997805265469
 30
0.0
  0
VERTEX
  5
BF5
  8
DATA
  6
CONTINUOUS
 62
     7
 10
-51.755806654922949
 20
-39.285794502089011
 30
0.0
  0
VERTEX
  5
BF6
  8
DATA
  6
CONTINUOUS
 62
     7
 10
-51.750195619728949
 20
-39.289582434658421
 30
0.0
  0
VERTEX
  5
BF7
  8
DATA
  6
CONTINUOUS
 62
     7
 10
-51.74446126508014
 20
-39.293361602973732
 30
0.0
  0
VERTEX
  5
BF8
  8
DATA
  6
CONTINUOUS
 62
     7
 10
-51.738603590976503
 20
-39.297132007034932
 30
0.0
  0
VERTEX
  5
BF9
  8
DATA
  6
CONTINUOUS
 62
     7
 10
-51.732622597418072
 20
-39.300893646842013
 30
0.0
  0
VERTEX
  5
BFA
  8
DATA
  6
CONTINUOUS
 62
     7
 10
-51.726518284404818
 20
-39.304646522394961
 30
0.0
  0
VERTEX
  5
BFB
  8
DATA
  6
CONTINUOUS
 62
     7
 10
-51.72029065193675
 20
-39.308390633693811
 30
0.0
  0
VERTEX
  5
BFC
  8
DATA
  6
CONTINUOUS
 62
     7
 10
-51.71393970001386
 20
-39.312125980738529
 30
0.0
  0
VERTEX
  5
BFD
  8
DATA
  6
CONTINUOUS
 62
     7
 10
-51.707465428636183
 20
-39.315852563529141
 30
0.0
  0
VERTEX
  5
BFE
  8
DATA
  6
CONTINUOUS
 62
     7
 10
-51.700867837803671
 20
-39.319570382065628
 30
0.0
  0
VERTEX
  5
BFF
  8
DATA
  6
CONTINUOUS
 62
     7
 10
-51.694146927516357
 20
-39.323279436348002
 30
0.0
  0
VERTEX
  5
C00
  8
DATA
  6
CONTINUOUS
 62
     7
 10
-51.687302697774221
 20
-39.326979726376258
 30
0.0
  0
VERTEX
  5
C01
  8
DATA
  6
CONTINUOUS
 62
     7
 10
-51.680335148577271
 20
-39.330671252150388
 30
0.0
  0
VERTEX
  5
C02
  8
DATA
  6
CONTINUOUS
 62
     7
 10
-51.673244279925498
 20
-39.334354013670421
 30
0.0
  0
VERTEX
  5
C03
  8
DATA
  6
CONTINUOUS
 62
     7
 10
-51.666030091818953
 20
-39.338028010936327
 30
0.0
  0
VERTEX
  5
C04
  8
DATA
  6
CONTINUOUS
 62
     7
 10
-51.658692584257572
 20
-39.341693243948122
 30
0.0
  0
VERTEX
  5
C05
  8
DATA
  6
CONTINUOUS
 62
     7
 10
-51.651231757241362
 20
-39.345349712705783
 30
0.0
  0
VERTEX
  5
C06
  8
DATA
  6
CONTINUOUS
 62
     7
 10
-51.643647610770351
 20
-39.348997417209347
 30
0.0
  0
VERTEX
  5
C07
  8
DATA
  6
CONTINUOUS
 62
     7
 10
-51.635940144844533
 20
-39.352636357458771
 30
0.0
  0
VERTEX
  5
C08
  8
DATA
  6
CONTINUOUS
 62
     7
 10
-51.628109359463892
 20
-39.356266533454097
 30
0.0
  0
VERTEX
  5
C09
  8
DATA
  6
CONTINUOUS
 62
     7
 10
-51.628109359463892
 20
-39.356266533454097
 30
0.0
  0
VERTEX
  5
C0A
  8
DATA
  6
CONTINUOUS
 62
     7
 10
-51.620171776302612
 20
-39.359880355128603
 30
0.0
  0
VERTEX
  5
C0B
  8
DATA
  6
CONTINUOUS
 62
     7
 10
-51.612143917034842
 20
-39.363470232415558
 30
0.0
  0
VERTEX
  5
C0C
  8
DATA
  6
CONTINUOUS
 62
     7
 10
-51.604025781660567
 20
-39.367036165314978
 30
0.0
  0
VERTEX
  5
C0D
  8
DATA
  6
CONTINUOUS
 62
     7
 10
-51.595817370179823
 20
-39.370578153826862
 30
0.0
  0
VERTEX
  5
C0E
  8
DATA
  6
CONTINUOUS
 62
     7
 10
-51.587518682592609
 20
-39.374096197951211
 30
0.0
  0
VERTEX
  5
C0F
  8
DATA
  6
CONTINUOUS
 62
     7
 10
-51.579129718898891
 20
-39.377590297688023
 30
0.0
  0
VERTEX
  5
C10
  8
DATA
  6
CONTINUOUS
 62
     7
 10
-51.570650479098703
 20
-39.381060453037293
 30
0.0
  0
VERTEX
  5
C11
  8
DATA
  6
CONTINUOUS
 62
     7
 10
-51.562080963192017
 20
-39.384506663999012
 30
0.0
  0
VERTEX
  5
C12
  8
DATA
  6
CONTINUOUS
 62
     7
 10
-51.553421171178861
 20
-39.387928930573203
 30
0.0
  0
VERTEX
  5
C13
  8
DATA
  6
CONTINUOUS
 62
     7
 10
-51.544671103059223
 20
-39.391327252759872
 30
0.0
  0
VERTEX
  5
C14
  8
DATA
  6
CONTINUOUS
 62
     7
 10
-51.535830758833072
 20
-39.394701630558977
 30
0.0
  0
VERTEX
  5
C15
  8
DATA
  6
CONTINUOUS
 62
     7
 10
-51.526900138500451
 20
-39.398052063970567
 30
0.0
  0
VERTEX
  5
C16
  8
DATA
  6
CONTINUOUS
 62
     7
 10
-51.517879242061362
 20
-39.401378552994622
 30
0.0
  0
VERTEX
  5
C17
  8
DATA
  6
CONTINUOUS
 62
     7
 10
-51.50876806951576
 20
-39.404681097631133
 30
0.0
  0
VERTEX
  5
C18
  8
DATA
  6
CONTINUOUS
 62
     7
 10
-51.499566620863668
 20
-39.407959697880088
 30
0.0
  0
VERTEX
  5
C19
  8
DATA
  6
CONTINUOUS
 62
     7
 10
-51.49027489610512
 20
-39.411214353741528
 30
0.0
  0
VERTEX
  5
C1A
  8
DATA
  6
CONTINUOUS
 62
     7
 10
-51.480892895240082
 20
-39.414445065215432
 30
0.0
  0
VERTEX
  5
C1B
  8
DATA
  6
CONTINUOUS
 62
     7
 10
-51.471420618268539
 20
-39.417651832301793
 30
0.0
  0
VERTEX
  5
C1C
  8
DATA
  6
CONTINUOUS
 62
     7
 10
-51.461858065190533
 20
-39.420834655000611
 30
0.0
  0
VERTEX
  5
C1D
  8
DATA
  6
CONTINUOUS
 62
     7
 10
-51.45220523600603
 20
-39.423993533311901
 30
0.0
  0
VERTEX
  5
C1E
  8
DATA
  6
CONTINUOUS
 62
     7
 10
-51.442462130715043
 20
-39.42712846723564
 30
0.0
  0
VERTEX
  5
C1F
  8
DATA
  6
CONTINUOUS
 62
     7
 10
-51.432628749317573
 20
-39.430239456771851
 30
0.0
  0
VERTEX
  5
C20
  8
DATA
  6
CONTINUOUS
 62
     7
 10
-51.422705091813611
 20
-39.433326501920511
 30
0.0
  0
VERTEX
  5
C21
  8
DATA
  6
CONTINUOUS
 62
     7
 10
-51.412691158203181
 20
-39.436389602681651
 30
0.0
  0
VERTEX
  5
C22
  8
DATA
  6
CONTINUOUS
 62
     7
 10
-51.402586948486253
 20
-39.439428759055261
 30
0.0
  0
VERTEX
  5
C23
  8
DATA
  6
CONTINUOUS
 62
     7
 10
-51.392392462662848
 20
-39.442443971041321
 30
0.0
  0
VERTEX
  5
C24
  8
DATA
  6
CONTINUOUS
 62
     7
 10
-51.382107700732959
 20
-39.445435238639831
 30
0.0
  0
VERTEX
  5
C25
  8
DATA
  6
CONTINUOUS
 62
     7
 10
-51.371732662696573
 20
-39.448402561850813
 30
0.0
  0
VERTEX
  5
C26
  8
DATA
  6
CONTINUOUS
 62
     7
 10
-51.361267348553717
 20
-39.451345940674273
 30
0.0
  0
VERTEX
  5
C27
  8
DATA
  6
CONTINUOUS
 62
     7
 10
-51.350711758304357
 20
-39.454265375110182
 30
0.0
  0
VERTEX
  5
C28
  8
DATA
  6
CONTINUOUS
 62
     7
 10
-51.340065891948527
 20
-39.457160865158549
 30
0.0
  0
VERTEX
  5
C29
  8
DATA
  6
CONTINUOUS
 62
     7
 10
-51.329329749486199
 20
-39.46003241081938
 30
0.0
  0
VERTEX
  5
C2A
  8
DATA
  6
CONTINUOUS
 62
     7
 10
-51.318503330917402
 20
-39.462880012092683
 30
0.0
  0
VERTEX
  5
C2B
  8
DATA
  6
CONTINUOUS
 62
     7
 10
-51.307586636242107
 20
-39.465703668978442
 30
0.0
  0
VERTEX
  5
C2C
  8
DATA
  6
CONTINUOUS
 62
     7
 10
-51.296579665460349
 20
-39.468503381476658
 30
0.0
  0
VERTEX
  5
C2D
  8
DATA
  6
CONTINUOUS
 62
     7
 10
-51.285482418572073
 20
-39.47127914958736
 30
0.0
  0
VERTEX
  5
C2E
  8
DATA
  6
CONTINUOUS
 62
     7
 10
-51.274294895577327
 20
-39.474030973310498
 30
0.0
  0
VERTEX
  5
C2F
  8
DATA
  6
CONTINUOUS
 62
     7
 10
-51.263017096476091
 20
-39.4767588526461
 30
0.0
  0
VERTEX
  5
C30
  8
DATA
  6
CONTINUOUS
 62
     7
 10
-51.251649021268378
 20
-39.47946278759418
 30
0.0
  0
VERTEX
  5
C31
  8
DATA
  6
CONTINUOUS
 62
     7
 10
-51.240190669954202
 20
-39.48214277815471
 30
0.0
  0
VERTEX
  5
C32
  8
DATA
  6
CONTINUOUS
 62
     7
 10
-51.228642042533522
 20
-39.48479882432769
 30
0.0
  0
VERTEX
  5
C33
  8
DATA
  6
CONTINUOUS
 62
     7
 10
-51.217003139006337
 20
-39.487430926113163
 30
0.0
  0
VERTEX
  5
C34
  8
DATA
  6
CONTINUOUS
 62
     7
 10
-51.20527395937269
 20
-39.490039083511093
 30
0.0
  0
VERTEX
  5
C35
  8
DATA
  6
CONTINUOUS
 62
     7
 10
-51.193454503632552
 20
-39.492623296521458
 30
0.0
  0
VERTEX
  5
C36
  8
DATA
  6
CONTINUOUS
 62
     7
 10
-51.18154477178593
 20
-39.495183565144309
 30
0.0
  0
VERTEX
  5
C37
  8
DATA
  6
CONTINUOUS
 62
     7
 10
-51.16954476383281
 20
-39.497719889379638
 30
0.0
  0
VERTEX
  5
C38
  8
DATA
  6
CONTINUOUS
 62
     7
 10
-51.15745447977325
 20
-39.500232269227403
 30
0.0
  0
VERTEX
  5
C39
  8
DATA
  6
CONTINUOUS
 62
     7
 10
-51.145273919607142
 20
-39.502720704687647
 30
0.0
  0
VERTEX
  5
C3A
  8
DATA
  6
CONTINUOUS
 62
     7
 10
-51.133003083334579
 20
-39.505185195760347
 30
0.0
  0
VERTEX
  5
C3B
  8
DATA
  6
CONTINUOUS
 62
     7
 10
-51.120641970955532
 20
-39.507625742445512
 30
0.0
  0
VERTEX
  5
C3C
  8
DATA
  6
CONTINUOUS
 62
     7
 10
-51.108190582469987
 20
-39.510042344743127
 30
0.0
  0
VERTEX
  5
C3D
  8
DATA
  6
CONTINUOUS
 62
     7
 10
-51.09564891787798
 20
-39.51243500265322
 30
0.0
  0
VERTEX
  5
C3E
  8
DATA
  6
CONTINUOUS
 62
     7
 10
-51.083016977179483
 20
-39.514803716175763
 30
0.0
  0
VERTEX
  5
C3F
  8
DATA
  6
CONTINUOUS
 62
     7
 10
-51.070294760374502
 20
-39.517148485310777
 30
0.0
  0
VERTEX
  5
C40
  8
DATA
  6
CONTINUOUS
 62
     7
 10
-51.057482267463023
 20
-39.519469310058248
 30
0.0
  0
VERTEX
  5
C41
  8
DATA
  6
CONTINUOUS
 62
     7
 10
-51.04457949844506
 20
-39.52176619041817
 30
0.0
  0
VERTEX
  5
C42
  8
DATA
  6
CONTINUOUS
 62
     7
 10
-51.031586453320607
 20
-39.524039126390583
 30
0.0
  0
VERTEX
  5
C43
  8
DATA
  6
CONTINUOUS
 62
     7
 10
-51.018503132089691
 20
-39.526288117975447
 30
0.0
  0
VERTEX
  5
C44
  8
DATA
  6
CONTINUOUS
 62
     7
 10
-51.005329534752278
 20
-39.528513165172782
 30
0.0
  0
VERTEX
  5
C45
  8
DATA
  6
CONTINUOUS
 62
     7
 10
-50.992065661308366
 20
-39.530714267982567
 30
0.0
  0
VERTEX
  5
C46
  8
DATA
  6
CONTINUOUS
 62
     7
 10
-50.978711511757993
 20
-39.532891426404817
 30
0.0
  0
VERTEX
  5
C47
  8
DATA
  6
CONTINUOUS
 62
     7
 10
-50.965267086101122
 20
-39.535044640439523
 30
0.0
  0
VERTEX
  5
C48
  8
DATA
  6
CONTINUOUS
 62
     7
 10
-50.951732384337781
 20
-39.537173910086693
 30
0.0
  0
VERTEX
  5
C49
  8
DATA
  6
CONTINUOUS
 62
     7
 10
-50.938107406467942
 20
-39.539279235346328
 30
0.0
  0
VERTEX
  5
C4A
  8
DATA
  6
CONTINUOUS
 62
     7
 10
-50.938107406467942
 20
-39.539279235346328
 30
0.0
  0
VERTEX
  5
C4B
  8
DATA
  6
CONTINUOUS
 62
     7
 10
-50.930090783356647
 20
-39.540500363887041
 30
0.0
  0
VERTEX
  5
C4C
  8
DATA
  6
CONTINUOUS
 62
     7
 10
-50.922062812551403
 20
-39.541710259678183
 30
0.0
  0
VERTEX
  5
C4D
  8
DATA
  6
CONTINUOUS
 62
     7
 10
-50.914023494052131
 20
-39.542908922719761
 30
0.0
  0
VERTEX
  5
C4E
  8
DATA
  6
CONTINUOUS
 62
     7
 10
-50.905972827858861
 20
-39.544096353011767
 30
0.0
  0
VERTEX
  5
C4F
  8
DATA
  6
CONTINUOUS
 62
     7
 10
-50.897910813971599
 20
-39.545272550554223
 30
0.0
  0
VERTEX
  5
C50
  8
DATA
  6
CONTINUOUS
 62
     7
 10
-50.889837452390317
 20
-39.546437515347087
 30
0.0
  0
VERTEX
  5
C51
  8
DATA
  6
CONTINUOUS
 62
     7
 10
-50.881752743115058
 20
-39.547591247390393
 30
0.0
  0
VERTEX
  5
C52
  8
DATA
  6
CONTINUOUS
 62
     7
 10
-50.873656686145793
 20
-39.548733746684128
 30
0.0
  0
VERTEX
  5
C53
  8
DATA
  6
CONTINUOUS
 62
     7
 10
-50.865549281482529
 20
-39.54986501322832
 30
0.0
  0
VERTEX
  5
C54
  8
DATA
  6
CONTINUOUS
 62
     7
 10
-50.857430529125267
 20
-39.550985047022913
 30
0.0
  0
VERTEX
  5
C55
  8
DATA
  6
CONTINUOUS
 62
     7
 10
-50.849300429073999
 20
-39.552093848067962
 30
0.0
  0
VERTEX
  5
C56
  8
DATA
  6
CONTINUOUS
 62
     7
 10
-50.841158981328718
 20
-39.553191416363418
 30
0.0
  0
VERTEX
  5
C57
  8
DATA
  6
CONTINUOUS
 62
     7
 10
-50.83300618588946
 20
-39.554277751909332
 30
0.0
  0
VERTEX
  5
C58
  8
DATA
  6
CONTINUOUS
 62
     7
 10
-50.824842042756202
 20
-39.555352854705653
 30
0.0
  0
VERTEX
  5
C59
  8
DATA
  6
CONTINUOUS
 62
     7
 10
-50.816666551928932
 20
-39.55641672475241
 30
0.0
  0
VERTEX
  5
C5A
  8
DATA
  6
CONTINUOUS
 62
     7
 10
-50.808479713407657
 20
-39.557469362049623
 30
0.0
  0
VERTEX
  5
C5B
  8
DATA
  6
CONTINUOUS
 62
     7
 10
-50.800281527192404
 20
-39.558510766597252
 30
0.0
  0
VERTEX
  5
C5C
  8
DATA
  6
CONTINUOUS
 62
     7
 10
-50.79207199328313
 20
-39.559540938395301
 30
0.0
  0
VERTEX
  5
C5D
  8
DATA
  6
CONTINUOUS
 62
     7
 10
-50.783851111679851
 20
-39.560559877443808
 30
0.0
  0
VERTEX
  5
C5E
  8
DATA
  6
CONTINUOUS
 62
     7
 10
-50.775618882382602
 20
-39.561567583742729
 30
0.0
  0
VERTEX
  5
C5F
  8
DATA
  6
CONTINUOUS
 62
     7
 10
-50.76737530539134
 20
-39.562564057292107
 30
0.0
  0
VERTEX
  5
C60
  8
DATA
  6
CONTINUOUS
 62
     7
 10
-50.759120380706072
 20
-39.5635492980919
 30
0.0
  0
VERTEX
  5
C61
  8
DATA
  6
CONTINUOUS
 62
     7
 10
-50.75085410832682
 20
-39.564523306142142
 30
0.0
  0
VERTEX
  5
C62
  8
DATA
  6
CONTINUOUS
 62
     7
 10
-50.742576488253533
 20
-39.565486081442792
 30
0.0
  0
VERTEX
  5
C63
  8
DATA
  6
CONTINUOUS
 62
     7
 10
-50.734287520486269
 20
-39.566437623993892
 30
0.0
  0
VERTEX
  5
C64
  8
DATA
  6
CONTINUOUS
 62
     7
 10
-50.725987205025007
 20
-39.567377933795399
 30
0.0
  0
VERTEX
  5
C65
  8
DATA
  6
CONTINUOUS
 62
     7
 10
-50.717675541869738
 20
-39.568307010847363
 30
0.0
  0
VERTEX
  5
C66
  8
DATA
  6
CONTINUOUS
 62
     7
 10
-50.709352531020492
 20
-39.569224855149741
 30
0.0
  0
VERTEX
  5
C67
  8
DATA
  6
CONTINUOUS
 62
     7
 10
-50.70101817247722
 20
-39.570131466702563
 30
0.0
  0
VERTEX
  5
C68
  8
DATA
  6
CONTINUOUS
 62
     7
 10
-50.692672466239948
 20
-39.57102684550582
 30
0.0
  0
VERTEX
  5
C69
  8
DATA
  6
CONTINUOUS
 62
     7
 10
-50.684315412308678
 20
-39.571910991559513
 30
0.0
  0
VERTEX
  5
C6A
  8
DATA
  6
CONTINUOUS
 62
     7
 10
-50.67594701068343
 20
-39.572783904863627
 30
0.0
  0
VERTEX
  5
C6B
  8
DATA
  6
CONTINUOUS
 62
     7
 10
-50.667567261364177
 20
-39.57364558541817
 30
0.0
  0
VERTEX
  5
C6C
  8
DATA
  6
CONTINUOUS
 62
     7
 10
-50.65917616435091
 20
-39.574496033223163
 30
0.0
  0
VERTEX
  5
C6D
  8
DATA
  6
CONTINUOUS
 62
     7
 10
-50.650773719643652
 20
-39.575335248278577
 30
0.0
  0
VERTEX
  5
C6E
  8
DATA
  6
CONTINUOUS
 62
     7
 10
-50.642359927242381
 20
-39.57616323058442
 30
0.0
  0
VERTEX
  5
C6F
  8
DATA
  6
CONTINUOUS
 62
     7
 10
-50.633934787147112
 20
-39.576979980140713
 30
0.0
  0
VERTEX
  5
C70
  8
DATA
  6
CONTINUOUS
 62
     7
 10
-50.625498299357858
 20
-39.577785496947442
 30
0.0
  0
VERTEX
  5
C71
  8
DATA
  6
CONTINUOUS
 62
     7
 10
-50.617050463874591
 20
-39.578579781004578
 30
0.0
  0
VERTEX
  5
C72
  8
DATA
  6
CONTINUOUS
 62
     7
 10
-50.608591280697333
 20
-39.579362832312157
 30
0.0
  0
VERTEX
  5
C73
  8
DATA
  6
CONTINUOUS
 62
     7
 10
-50.600120749826061
 20
-39.580134650870157
 30
0.0
  0
VERTEX
  5
C74
  8
DATA
  6
CONTINUOUS
 62
     7
 10
-50.591638871260798
 20
-39.580895236678607
 30
0.0
  0
VERTEX
  5
C75
  8
DATA
  6
CONTINUOUS
 62
     7
 10
-50.583145645001537
 20
-39.5816445897375
 30
0.0
  0
VERTEX
  5
C76
  8
DATA
  6
CONTINUOUS
 62
     7
 10
-50.574641071048269
 20
-39.582382710046801
 30
0.0
  0
VERTEX
  5
C77
  8
DATA
  6
CONTINUOUS
 62
     7
 10
-50.566125149401017
 20
-39.58310959760653
 30
0.0
  0
VERTEX
  5
C78
  8
DATA
  6
CONTINUOUS
 62
     7
 10
-50.55759788005976
 20
-39.583825252416709
 30
0.0
  0
VERTEX
  5
C79
  8
DATA
  6
CONTINUOUS
 62
     7
 10
-50.549059263024503
 20
-39.584529674477331
 30
0.0
  0
VERTEX
  5
C7A
  8
DATA
  6
CONTINUOUS
 62
     7
 10
-50.540509298295241
 20
-39.58522286378836
 30
0.0
  0
VERTEX
  5
C7B
  8
DATA
  6
CONTINUOUS
 62
     7
 10
-50.531947985871973
 20
-39.585904820349853
 30
0.0
  0
VERTEX
  5
C7C
  8
DATA
  6
CONTINUOUS
 62
     7
 10
-50.523375325754721
 20
-39.586575544161747
 30
0.0
  0
VERTEX
  5
C7D
  8
DATA
  6
CONTINUOUS
 62
     7
 10
-50.514791317943448
 20
-39.58723503522409
 30
0.0
  0
VERTEX
  5
C7E
  8
DATA
  6
CONTINUOUS
 62
     7
 10
-50.506195962438213
 20
-39.587883293536862
 30
0.0
  0
VERTEX
  5
C7F
  8
DATA
  6
CONTINUOUS
 62
     7
 10
-50.49758925923895
 20
-39.588520319100049
 30
0.0
  0
VERTEX
  5
C80
  8
DATA
  6
CONTINUOUS
 62
     7
 10
-50.488971208345689
 20
-39.589146111913692
 30
0.0
  0
VERTEX
  5
C81
  8
DATA
  6
CONTINUOUS
 62
     7
 10
-50.480341809758421
 20
-39.589760671977757
 30
0.0
  0
VERTEX
  5
C82
  8
DATA
  6
CONTINUOUS
 62
     7
 10
-50.471701063477148
 20
-39.590363999292258
 30
0.0
  0
VERTEX
  5
C83
  8
DATA
  6
CONTINUOUS
 62
     7
 10
-50.463048969501891
 20
-39.590956093857201
 30
0.0
  0
VERTEX
  5
C84
  8
DATA
  6
CONTINUOUS
 62
     7
 10
-50.454385527832642
 20
-39.591536955672566
 30
0.0
  0
VERTEX
  5
C85
  8
DATA
  6
CONTINUOUS
 62
     7
 10
-50.44571073846938
 20
-39.59210658473836
 30
0.0
  0
VERTEX
  5
C86
  8
DATA
  6
CONTINUOUS
 62
     7
 10
-50.437024601412134
 20
-39.592664981054583
 30
0.0
  0
VERTEX
  5
C87
  8
DATA
  6
CONTINUOUS
 62
     7
 10
-50.428327116660867
 20
-39.593212144621248
 30
0.0
  0
VERTEX
  5
C88
  8
DATA
  6
CONTINUOUS
 62
     7
 10
-50.419618284215609
 20
-39.593748075438327
 30
0.0
  0
VERTEX
  5
C89
  8
DATA
  6
CONTINUOUS
 62
     7
 10
-50.410898104076338
 20
-39.594272773505871
 30
0.0
  0
VERTEX
  5
C8A
  8
DATA
  6
CONTINUOUS
 62
     7
 10
-50.402166576243097
 20
-39.594786238823829
 30
0.0
  0
VERTEX
  5
C8B
  8
DATA
  6
CONTINUOUS
 62
     7
 10
-50.402166576243097
 20
-39.594786238823829
 30
0.0
  0
SEQEND
  5
C8C
  8
DATA
  6
CONTINUOUS
 62
     7
  0
LINE
  5
59D
  8
DATA
  6
CONTINUOUS
 62
     7
 10
-50.402166576243097
 20
-39.594786238823829
 30
0.0
 11
-51.211555301745094
 21
-40.062087037371448
 31
0.0
  0
LINE
  5
59E
  8
DATA
  6
CONTINUOUS
 62
     7
 10
-49.597833423756889
 20
-39.594786238823829
 30
0.0
 11
-48.788444698254871
 21
-40.062087037371448
 31
0.0
  0
LINE
  5
59F
  8
DATA
  6
CONTINUOUS
 62
     7
 10
5.6000000000000094
 20
75.0
 30
0.0
 11
12.500000000000011
 21
75.0
 31
0.0
  0
LINE
  5
5A0
  8
DATA
  6
CONTINUOUS
 62
     7
 10
-8.1966004446093468
 20
-60.0
 30
0.0
 11
12.000000000000011
 21
-60.0
 31
0.0
  0
LINE
  5
5A1
  8
DATA
  6
CONTINUOUS
 62
     7
 10
20.000000000000011
 20
-56.199719977894851
 30
0.0
 11
20.000000000000011
 21
-41.959289098329833
 31
0.0
  0
LINE
  5
5A2
  8
DATA
  6
CONTINUOUS
 62
     7
 10
-9.9999999999999822
 20
-58.376420343716291
 30
0.0
 11
15.417810575725589
 21
-58.376420343716291
 31
0.0
  0
LINE
  5
5A3
  8
DATA
  6
CONTINUOUS
 62
     7
 10
12.000000000000011
 20
-39.935389797092682
 30
0.0
 11
12.000000000000011
 21
-28.70000000000001
 31
0.0
  0
LINE
  5
5A4
  8
DATA
  6
CONTINUOUS
 62
     7
 10
12.000000000000011
 20
-18.300000000000001
 30
0.0
 11
12.00000000000002
 21
72.0
 31
0.0
  0
LINE
  5
5A5
  8
DATA
  6
CONTINUOUS
 62
     7
 10
12.000000000000011
 20
-39.935389797092682
 30
0.0
 11
18.619417391554691
 21
-40.464050158697013
 31
0.0
  0
ARC
  5
5A6
  8
DATA
  6
CONTINUOUS
 62
     7
 10
18.500000000000011
 20
-41.959289098329833
 30
0.0
 40
1.5000000000000031
 50
359.99999999999972
 51
85.433759475516638
  0
LINE
  5
5A7
  8
DATA
  6
CONTINUOUS
 62
     7
 10
6.100000000000013
 20
-30.521442555114952
 30
0.0
 11
6.100000000000013
 21
-30.0
 31
0.0
  0
LINE
  5
5A8
  8
DATA
  6
CONTINUOUS
 62
     7
 10
6.100000000000013
 20
-17.0
 30
0.0
 11
6.1000000000000192
 21
71.999999999999986
 31
0.0
  0
LINE
  5
5A9
  8
DATA
  6
CONTINUOUS
 62
     7
 10
5.6000000000000076
 20
72.0
 30
0.0
 11
12.500000000000011
 21
72.0
 31
0.0
  0
LINE
  5
5AA
  8
DATA
  6
CONTINUOUS
 62
     7
 10
5.6000000000000094
 20
75.0
 30
0.0
 11
5.6000000000000094
 21
72.0
 31
0.0
  0
LINE
  5
5AB
  8
DATA
  6
CONTINUOUS
 62
     7
 10
12.500000000000011
 20
75.0
 30
0.0
 11
12.500000000000011
 21
72.0
 31
0.0
  0
LINE
  5
5AC
  8
DATA
  6
CONTINUOUS
 62
     7
 10
-9.999999999999984
 20
-58.376420343716291
 30
0.0
 11
-9.999999999999984
 21
-55.999999999999943
 31
0.0
  0
LINE
  5
5AD
  8
DATA
  6
CONTINUOUS
 62
     7
 10
2.0000000000000142
 20
-52.829165124598887
 30
0.0
 11
2.0000000000000142
 21
-37.623001889329508
 31
0.0
  0
ARC
  5
5AE
  8
DATA
  6
CONTINUOUS
 62
     7
 10
-5.2781897265948494
 20
-56.169386909693451
 30
0.0
 40
4.7248475301547881
 50
31.509399357491379
 51
177.94549240377529
  0
ARC
  5
5AF
  8
DATA
  6
CONTINUOUS
 62
     7
 10
0.2037386440559263
 20
-52.625426480542963
 30
0.0
 40
1.8077788288227741
 50
216.4710451144548
 51
353.52895488554429
  0
LINE
  5
5B0
  8
DATA
  6
CONTINUOUS
 62
     7
 10
-9.9999999999999822
 20
-58.376420343716291
 30
0.0
 11
-9.495638550286003
 21
-59.25
 31
0.0
  0
ARC
  5
5B1
  8
DATA
  6
CONTINUOUS
 62
     7
 10
-8.196600444609345
 20
-58.5
 30
0.0
 40
1.5000000000000011
 50
210.0
 51
269.99999999999977
  0
LINE
  5
5B2
  8
DATA
  6
CONTINUOUS
 62
     7
 10
2.1000000000000121
 20
-30.0
 30
0.0
 11
8.1000000000000139
 21
-30.0
 31
0.0
  0
LINE
  5
5B3
  8
DATA
  6
CONTINUOUS
 62
     7
 10
3.5442375459403319
 20
-34.465593019824198
 30
0.0
 11
4.5557624540596944
 21
-33.678851424620248
 31
0.0
  0
ARC
  5
5B4
  8
DATA
  6
CONTINUOUS
 62
     7
 10
6.0000000000000142
 20
-37.623001889329508
 30
0.0
 40
3.9999999999999978
 50
127.8749836510982
 51
180.0
  0
ARC
  5
5B5
  8
DATA
  6
CONTINUOUS
 62
     7
 10
2.100000000000013
 20
-30.521442555114952
 30
0.0
 40
3.9999999999999969
 50
307.87498365109809
 51
0.0
  0
LINE
  5
5B6
  8
DATA
  6
CONTINUOUS
 62
     7
 10
4.6300000000000141
 20
-17.0
 30
0.0
 11
8.1000000000000139
 21
-17.0
 31
0.0
  0
LINE
  5
5B7
  8
DATA
  6
CONTINUOUS
 62
     7
 10
2.100000000000013
 20
-17.030383764725581
 30
0.0
 11
2.100000000000013
 21
-30.0
 31
0.0
  0
ARC
  5
5B8
  8
DATA
  6
CONTINUOUS
 62
     7
 10
8.1000000000000139
 20
-23.5
 30
0.0
 40
6.5
 50
270.0
 51
90.0
  0
LINE
  5
5B9
  8
DATA
  6
CONTINUOUS
 62
     7
 10
14.60000000000001
 20
-23.5
 30
0.0
 11
14.60000000000001
 21
-29.937390775772428
 31
0.0
  0
LINE
  5
5BA
  8
DATA
  6
CONTINUOUS
 62
     7
 10
13.600000000000019
 20
-26.96410161513775
 30
0.0
 11
13.600000000000019
 21
-29.937390775772428
 31
0.0
  0
LINE
  5
5BB
  8
DATA
  6
CONTINUOUS
 62
     7
 10
13.600000000000019
 20
-29.937390775772428
 30
0.0
 11
14.60000000000001
 21
-29.937390775772428
 31
0.0
  0
LINE
  5
5BC
  8
DATA
  6
CONTINUOUS
 62
     7
 10
-5.3999999999999844
 20
-14.0
 30
0.0
 11
4.1299999925494326
 21
-14.0
 31
0.0
  0
LINE
  5
5BD
  8
DATA
  6
CONTINUOUS
 62
     7
 10
-5.3999999999999844
 20
-16.530383757275011
 30
0.0
 11
1.599999992549433
 21
-16.530383757275011
 31
0.0
  0
LINE
  5
5BE
  8
DATA
  6
CONTINUOUS
 62
     7
 10
4.6300000000000141
 20
-14.500000007450581
 30
0.0
 11
4.6300000000000141
 21
-17.0
 31
0.0
  0
ARC
  5
5BF
  8
DATA
  6
CONTINUOUS
 62
     7
 10
12.5113318189512
 20
-34.430934953625609
 30
0.0
 40
5.5281537019913021
 50
175.5290988333509
 51
264.69278647085332
  0
LINE
  5
5C0
  8
DATA
  6
CONTINUOUS
 62
     7
 10
7.0000000000000142
 20
-34.0
 30
0.0
 11
7.0000000000000142
 21
-30.0
 31
0.0
  0
TEXT
  5
5C1
  8
DATA
 62
     7
 10
6.9876832404125278
 20
-53.901689270365928
 30
0.0
 40
2.443261755157438
  1
DPA
 50
90.0
 41
0.7
 11
4.5444214852550902
 21
-53.901689270365928
 31
0.0
 73
     3
  0
LINE
  5
5C2
  8
DATA
  6
CONTINUOUS
 62
     7
 10
-11.399999999999981
 20
-17.85469028596129
 30
0.0
 11
-11.399999999999981
 21
-8.1825920737717457
 31
0.0
  0
LINE
  5
5C3
  8
DATA
  6
CONTINUOUS
 62
     7
 10
-5.3999999999999844
 20
-17.85469028596129
 30
0.0
 11
-5.3999999999999844
 21
-8.1825920737717475
 31
0.0
  0
LINE
  5
5C4
  8
DATA
  6
CONTINUOUS
 62
     7
 10
-11.399999999999981
 20
-17.85469028596129
 30
0.0
 11
-5.3999999999999844
 21
-17.85469028596129
 31
0.0
  0
LINE
  5
5C5
  8
DATA
  6
CONTINUOUS
 62
     7
 10
-45.525000000000013
 20
-16.530383757275011
 30
0.0
 11
-45.524999999999977
 21
-14.0
 31
0.0
  0
LINE
  5
5C6
  8
DATA
  6
CONTINUOUS
 62
     7
 10
-8.4924899958707591
 20
0.5025331269366761
 30
0.0
 11
-8.3075100041292025
 21
0.5025331269366761
 31
0.0
  0
ARC
  5
5C7
  8
DATA
  6
CONTINUOUS
 62
     7
 10
-8.3999999999999844
 20
-4.3576642451033987
 30
0.0
 40
4.8610773388747432
 50
308.10810185233208
 51
231.891898147668
  0
ARC
  5
5C8
  8
DATA
  6
CONTINUOUS
 62
     7
 10
4.1299999925494326
 20
-14.500000007450581
 30
0.0
 40
0.5000000074505806
 50
0.0
 51
90.0
  0
ARC
  5
5C9
  8
DATA
  6
CONTINUOUS
 62
     7
 10
1.599999992549433
 20
-17.030383764725581
 30
0.0
 40
0.5000000074505806
 50
0.0
 51
90.0
  0
CIRCLE
  5
5CA
  8
DATA
  6
CONTINUOUS
 62
     7
 10
-8.3999999999999844
 20
-4.3576642451033987
 30
0.0
 40
3.3999999999999981
  0
LINE
  5
5CB
  8
DATA
  6
CONTINUOUS
 62
     7
 10
56.500000000000021
 20
-59.0
 30
0.0
 11
56.500000000000021
 21
-34.90850274577955
 31
0.0
  0
LINE
  5
5CC
  8
DATA
  6
CONTINUOUS
 62
     7
 10
63.500000000000021
 20
-34.90850274577955
 30
0.0
 11
63.500000000000021
 21
-59.0
 31
0.0
  0
LINE
  5
5CD
  8
DATA
  6
CONTINUOUS
 62
     7
 10
56.500000000000021
 20
75.0
 30
0.0
 11
63.500000000000021
 21
75.0
 31
0.0
  0
ARC
  5
5CE
  8
DATA
  6
CONTINUOUS
 62
     7
 10
60.000000000000021
 20
-53.374999999999993
 30
0.0
 40
6.6250000000000142
 50
238.10920819815411
 51
301.89079180184558
  0
LINE
  5
5CF
  8
DATA
  6
CONTINUOUS
 62
     7
 10
54.000000000000021
 20
-27.5
 30
0.0
 11
54.000000000000021
 21
-19.5
 31
0.0
  0
LINE
  5
5D0
  8
DATA
  6
CONTINUOUS
 62
     7
 10
66.000000000000014
 20
-19.500000000000011
 30
0.0
 11
66.000000000000014
 21
-27.5
 31
0.0
  0
ARC
  5
5D1
  8
DATA
  6
CONTINUOUS
 62
     7
 10
60.588330564783959
 20
-25.084929401993229
 30
0.0
 40
8.636986514758199
 50
118.2520708424053
 51
139.7120475551063
  0
ARC
  5
5D2
  8
DATA
  6
CONTINUOUS
 62
     7
 10
59.411669435216062
 20
-25.084929401993229
 30
0.0
 40
8.6369865147581972
 50
40.287952444893698
 51
61.747929157594683
  0
ARC
  5
5D3
  8
DATA
  6
CONTINUOUS
 62
     7
 10
60.588330564783959
 20
-21.915070598006761
 30
0.0
 40
8.6369865147581972
 50
220.2879524448937
 51
249.40369229081139
  0
ARC
  5
5D4
  8
DATA
  6
CONTINUOUS
 62
     7
 10
59.411669435216062
 20
-21.915070598006761
 30
0.0
 40
8.6369865147582008
 50
290.59630770918852
 51
319.71204755510632
  0
LINE
  5
5D5
  8
DATA
  6
CONTINUOUS
 62
     7
 10
56.500000000000021
 20
72.0
 30
0.0
 11
63.500000000000021
 21
72.0
 31
0.0
  0
LINE
  5
5D6
  8
DATA
  6
CONTINUOUS
 62
     7
 10
56.500000000000021
 20
75.0
 30
0.0
 11
56.500000000000021
 21
72.0
 31
0.0
  0
LINE
  5
5D7
  8
DATA
  6
CONTINUOUS
 62
     7
 10
63.500000000000021
 20
75.0
 30
0.0
 11
63.500000000000021
 21
72.0
 31
0.0
  0
LINE
  5
5D8
  8
DATA
  6
CONTINUOUS
 62
     7
 10
56.500000000000021
 20
-16.574175148187081
 30
0.0
 11
56.500000000000021
 21
-17.476835734774859
 31
0.0
  0
LINE
  5
5D9
  8
DATA
  6
CONTINUOUS
 62
     7
 10
63.500000000000021
 20
-16.574175148187081
 30
0.0
 11
63.500000000000021
 21
-17.476835734774859
 31
0.0
  0
LINE
  5
5DA
  8
DATA
  6
CONTINUOUS
 62
     7
 10
57.550000000000011
 20
72.0
 30
0.0
 11
62.45000000000001
 21
72.0
 31
0.0
  0
LINE
  5
5DB
  8
DATA
  6
CONTINUOUS
 62
     7
 10
57.550000000000011
 20
-30.0
 30
0.0
 11
57.550000000000011
 21
-31.572553687289801
 31
0.0
  0
LINE
  5
5DC
  8
DATA
  6
CONTINUOUS
 62
     7
 10
62.45000000000001
 20
-30.0
 30
0.0
 11
62.45000000000001
 21
-31.57255368728962
 31
0.0
  0
ARC
  5
5DD
  8
DATA
  6
CONTINUOUS
 62
     7
 10
51.973309438655939
 20
-31.33421436539642
 30
0.0
 40
5.5817813688234574
 50
327.10795290412619
 51
357.55275432602781
  0
ARC
  5
5DE
  8
DATA
  6
CONTINUOUS
 62
     7
 10
68.026690561344083
 20
-31.33421436539642
 30
0.0
 40
5.5817813688234441
 50
182.44724567397219
 51
212.89204709587389
  0
ARC
  5
5DF
  8
DATA
  6
CONTINUOUS
 62
     7
 10
57.5
 20
-34.90850274577955
 30
0.0
 40
0.9999999999999822
 50
147.10795290412531
 51
180.0
  0
ARC
  5
5E0
  8
DATA
  6
CONTINUOUS
 62
     7
 10
62.500000000000021
 20
-34.90850274577955
 30
0.0
 40
0.9999999999999857
 50
0.0
 51
32.892047095874659
  0
ARC
  5
5E1
  8
DATA
  6
CONTINUOUS
 62
     7
 10
60.000000000000021
 20
106.4123230666268
 30
0.0
 40
120.5373230666268
 50
272.27032546585758
 51
275.49250694272212
  0
ARC
  5
5E2
  8
DATA
  6
CONTINUOUS
 62
     7
 10
60.000000000000021
 20
103.9123230666268
 30
0.0
 40
120.5373230666267
 50
264.20985000803091
 51
272.27032546585781
  0
ARC
  5
5E3
  8
DATA
  6
CONTINUOUS
 62
     7
 10
60.000000000000021
 20
103.9123230666268
 30
0.0
 40
120.5373230666268
 50
272.27032546585758
 51
275.79014999196937
  0
ARC
  5
5E4
  8
DATA
  6
CONTINUOUS
 62
     7
 10
60.000000000000021
 20
106.4123230666268
 30
0.0
 40
120.5373230666268
 50
264.50749305727788
 51
272.3695686430126
  0
LINE
  5
5E5
  8
DATA
  6
CONTINUOUS
 62
     7
 10
-10.957673036192441
 20
-2.1175060721312162
 30
0.0
 11
-5.8423269638075288
 21
-2.1175060721312162
 31
0.0
  0
LINE
  5
5E6
  8
DATA
  6
CONTINUOUS
 62
     7
 10
-11.5080558455976
 20
-2.979263410568513
 30
0.0
 11
-5.2919441544023664
 21
-2.979263410568513
 31
0.0
  0
LINE
  5
5E7
  8
DATA
  6
CONTINUOUS
 62
     7
 10
-11.79143877074578
 20
-4.1165355154126884
 30
0.0
 11
-5.0085612292541919
 21
-4.1165355154126884
 31
0.0
  0
LINE
  5
5E8
  8
DATA
  6
CONTINUOUS
 62
     7
 10
-11.74289497341546
 20
-4.978190793055667
 30
0.0
 11
-5.0571050265845123
 21
-4.978190793055667
 31
0.0
  0
LINE
  5
5E9
  8
DATA
  6
CONTINUOUS
 62
     7
 10
-11.30620594663089
 20
-6.1223078339810932
 30
0.0
 11
-5.4937940533690792
 21
-6.1223078339810932
 31
0.0
  0
LINE
  5
5EA
  8
DATA
  6
CONTINUOUS
 62
     7
 10
-10.60339925516578
 20
-6.9470718457593534
 30
0.0
 11
-6.1966007448341927
 21
-6.9470718457593534
 31
0.0
  0
LINE
  5
5EB
  8
DATA
  6
CONTINUOUS
 62
     7
 10
-53.204385329558221
 20
72.0
 30
0.0
 11
-53.204385329558242
 21
-17.325235967267929
 31
0.0
  0
LINE
  5
5EC
  8
DATA
  6
CONTINUOUS
 62
     7
 10
-46.795614670441722
 20
72.0
 30
0.0
 11
-46.795614670441743
 21
-17.325235967267929
 31
0.0
  0
LINE
  5
5ED
  8
DATA
  6
CONTINUOUS
 62
     7
 10
57.175000000000018
 20
71.999999999999986
 30
0.0
 11
57.175000000000011
 21
-14.091891079884951
 31
0.0
  0
LINE
  5
5EE
  8
DATA
  6
CONTINUOUS
 62
     7
 10
62.825000000000017
 20
72.0
 30
0.0
 11
62.82500000000001
 21
-14.091891079884951
 31
0.0
  0
ARC
  5
5EF
  8
DATA
  6
CONTINUOUS
 62
     7
 10
60.000000000000021
 20
-20.00366763806656
 30
0.0
 40
10.29218930501367
 50
256.22884073440792
 51
283.77115926559208
  0
ARC
  5
5F0
  8
DATA
  6
CONTINUOUS
 62
     7
 10
60.000000000000021
 20
-59.107670762076552
 30
0.0
 40
7.6631216643804621
 50
62.823510548591941
 51
117.176489451408
  0
LINE
  5
5F1
  8
DATA
  6
CONTINUOUS
 62
     7
 10
58.800000000000011
 20
-14.119026598380939
 30
0.0
 11
58.800000000000018
 21
72.0
 31
0.0
  0
LINE
  5
5F2
  8
DATA
  6
CONTINUOUS
 62
     7
 10
61.20000000000001
 20
72.0
 30
0.0
 11
61.200000000000003
 21
-14.119026598380939
 31
0.0
  0
CIRCLE
  5
5F3
  8
DATA
  6
CONTINUOUS
 62
     7
 10
60.000000000000021
 20
-23.5
 30
0.0
 40
0.5
  0
LINE
  5
5F4
  8
DATA
  6
CONTINUOUS
 62
     7
 10
-55.79999999999999
 20
125.3352729149222
 30
0.0
 11
-67.912690612010636
 21
125.3352729149222
 31
0.0
  0
LINE
  5
5F5
  8
DATA
  6
CONTINUOUS
 62
     7
 10
-67.912690612010636
 20
131.3352729149222
 30
0.0
 11
-32.08730938798935
 21
131.3352729149222
 31
0.0
  0
LINE
  5
5F6
  8
DATA
  6
CONTINUOUS
 62
     7
 10
-32.087309387989343
 20
125.3352729149222
 30
0.0
 11
-44.199999999999989
 21
125.3352729149222
 31
0.0
  0
LINE
  5
5F7
  8
DATA
  6
CONTINUOUS
 62
     7
 10
-46.499999999999993
 20
114.8352729149222
 30
0.0
 11
-47.699999999999982
 21
107.93527291492219
 31
0.0
  0
LINE
  5
5F8
  8
DATA
  6
CONTINUOUS
 62
     7
 10
-53.499999999999993
 20
114.8352729149222
 30
0.0
 11
-52.29999999999999
 21
107.93527291492219
 31
0.0
  0
LINE
  5
5F9
  8
DATA
  6
CONTINUOUS
 62
     7
 10
-47.699999999999982
 20
107.93527291492219
 30
0.0
 11
-52.29999999999999
 21
107.93527291492219
 31
0.0
  0
LINE
  5
5FA
  8
DATA
  6
CONTINUOUS
 62
     7
 10
-53.499999999999993
 20
114.8352729149222
 30
0.0
 11
-46.499999999999993
 21
114.8352729149222
 31
0.0
  0
LINE
  5
5FB
  8
DATA
  6
CONTINUOUS
 62
     7
 10
-43.999999999999993
 20
108.5353748618475
 30
0.0
 11
-43.999999999999993
 21
117.8352729149222
 31
0.0
  0
LINE
  5
5FC
  8
DATA
  6
CONTINUOUS
 62
     7
 10
-55.999999999999993
 20
108.5353748618475
 30
0.0
 11
-55.999999999999993
 21
117.8352729149222
 31
0.0
  0
LINE
  5
5FD
  8
DATA
  6
CONTINUOUS
 62
     7
 10
-43.999999999999993
 20
117.8352729149222
 30
0.0
 11
-45.200000000000003
 21
117.8352729149222
 31
0.0
  0
LINE
  5
5FE
  8
DATA
  6
CONTINUOUS
 62
     7
 10
-54.799999999999997
 20
117.8352729149222
 30
0.0
 11
-55.999999999999993
 21
117.8352729149222
 31
0.0
  0
ARC
  5
5FF
  8
DATA
  6
CONTINUOUS
 62
     7
 10
-50.0
 20
112.56014469051421
 30
0.0
 40
7.2248717755919927
 50
213.8535102751772
 51
243.72984138535469
  0
ARC
  5
600
  8
DATA
  6
CONTINUOUS
 62
     7
 10
-50.0
 20
112.56014469051421
 30
0.0
 40
7.2248717755919927
 50
243.64761081545581
 51
326.14648972482269
  0
LINE
  5
601
  8
DATA
  6
CONTINUOUS
 62
     7
 10
-45.199999999999982
 20
124.3352729149222
 30
0.0
 11
-45.199999999999982
 21
116.8052729149222
 31
0.0
  0
LINE
  5
602
  8
DATA
  6
CONTINUOUS
 62
     7
 10
-54.79999999999999
 20
116.80527292237279
 30
0.0
 11
-54.79999999999999
 21
124.3352729149222
 31
0.0
  0
LINE
  5
603
  8
DATA
  6
CONTINUOUS
 62
     7
 10
-54.299999992549409
 20
116.3052729149222
 30
0.0
 11
-45.699999999999989
 21
116.3052729149222
 31
0.0
  0
ARC
  5
604
  8
DATA
  6
CONTINUOUS
 62
     7
 10
-50.000000000000227
 20
103.43527291492229
 30
0.0
 40
3.499999999999718
 50
160.45621810381161
 51
258.96383426034407
  0
ARC
  5
605
  8
DATA
  6
CONTINUOUS
 62
     7
 10
-50.000000000000227
 20
103.43527291492229
 30
0.0
 40
3.4999999999997189
 50
281.03616573962711
 51
19.54378189616029
  0
LINE
  5
606
  8
DATA
  6
CONTINUOUS
 62
     7
 10
-46.701648505369207
 20
104.6061176603377
 30
0.0
 11
-46.80224131128503
 21
106.08147881376971
 31
0.0
  0
LINE
  5
607
  8
DATA
  6
CONTINUOUS
 62
     7
 10
-53.298351494630737
 20
104.6061176603377
 30
0.0
 11
-53.197758688714927
 21
106.08147881376971
 31
0.0
  0
ARC
  5
608
  8
DATA
  6
CONTINUOUS
 62
     7
 10
-50.000000000000242
 20
102.9622979984138
 30
0.0
 40
1.800000000000209
 50
291.85273292033111
 51
248.1472670796114
  0
LINE
  5
609
  8
DATA
  6
CONTINUOUS
 62
     7
 10
-49.330000000001093
 20
101.2916394456264
 30
0.0
 11
-49.330000000001093
 21
100.0
 31
0.0
  0
LINE
  5
60A
  8
DATA
  6
CONTINUOUS
 62
     7
 10
-50.670000000001068
 20
100.0000000000003
 30
0.0
 11
-50.670000000001068
 21
101.2916394456271
 31
0.0
  0
LINE
  5
60B
  8
DATA
  6
CONTINUOUS
 62
     7
 10
-48.999999999999993
 20
107.93527291492219
 30
0.0
 11
-48.999999999999993
 21
105.404812959997
 31
0.0
  0
LINE
  5
60C
  8
DATA
  6
CONTINUOUS
 62
     7
 10
-50.999999999999993
 20
105.404812959997
 30
0.0
 11
-50.999999999999993
 21
107.93527291492219
 31
0.0
  0
ARC
  5
60D
  8
DATA
  6
CONTINUOUS
 62
     7
 10
-44.199999999999989
 20
124.3352729149222
 30
0.0
 40
1.0
 50
90.0
 51
180.0
  0
ARC
  5
60E
  8
DATA
  6
CONTINUOUS
 62
     7
 10
-55.79999999999999
 20
124.3352729149222
 30
0.0
 40
1.0
 50
0.0
 51
90.0
  0
ARC
  5
60F
  8
DATA
  6
CONTINUOUS
 62
     7
 10
-45.699999999999989
 20
116.8052729149222
 30
0.0
 40
0.5
 50
270.0
 51
0.0
  0
ARC
  5
610
  8
DATA
  6
CONTINUOUS
 62
     7
 10
-54.299999992549409
 20
116.80527292237279
 30
0.0
 40
0.5000000074505806
 50
180.0
 51
270.0
  0
ARC
  5
611
  8
DATA
  6
CONTINUOUS
 62
     7
 10
-29.849970067357638
 20
130.95710764025199
 30
0.0
 40
2.2690738662747698
 50
99.467757857760347
 51
170.4062826930417
  0
ARC
  5
612
  8
DATA
  6
CONTINUOUS
 62
     7
 10
-29.849970067357638
 20
125.7134381895924
 30
0.0
 40
2.269073866274768
 50
189.59371730695821
 51
260.53224214223962
  0
ARC
  5
613
  8
DATA
  6
CONTINUOUS
 62
     7
 10
-41.423434583460718
 20
128.3352729149222
 30
0.0
 40
12.209197340080459
 50
336.5430090642202
 51
23.45699093577997
  0
LINE
  5
614
  8
DATA
  6
CONTINUOUS
 62
     7
 10
-29.697203318087009
 20
124.93527291492219
 30
0.0
 11
-28.704646325458771
 21
124.93527291492219
 31
0.0
  0
LINE
  5
615
  8
DATA
  6
CONTINUOUS
 62
     7
 10
-29.697203318087009
 20
131.73527291492221
 30
0.0
 11
-28.704646325458771
 21
131.73527291492221
 31
0.0
  0
LINE
  5
616
  8
DATA
  6
CONTINUOUS
 62
     7
 10
-28.704646325458771
 20
131.73527291492221
 30
0.0
 11
-28.704646325458771
 21
124.93527291492219
 31
0.0
  0
ARC
  5
617
  8
DATA
  6
CONTINUOUS
 62
     7
 10
-50.41803377883511
 20
128.3352729149222
 30
0.0
 40
21.919653161043438
 50
352.13361028960918
 51
7.8663897103907061
  0
ARC
  5
618
  8
DATA
  6
CONTINUOUS
 62
     7
 10
-70.15002993264234
 20
130.95710764025199
 30
0.0
 40
2.2690738662747649
 50
9.5937173069582862
 51
80.53224214223961
  0
ARC
  5
619
  8
DATA
  6
CONTINUOUS
 62
     7
 10
-70.15002993264234
 20
125.7134381895924
 30
0.0
 40
2.2690738662747698
 50
279.46775785776049
 51
350.40628269304182
  0
ARC
  5
61A
  8
DATA
  6
CONTINUOUS
 62
     7
 10
-58.576565416539239
 20
128.3352729149222
 30
0.0
 40
12.209197340080481
 50
156.54300906422
 51
203.4569909357798
  0
LINE
  5
61B
  8
DATA
  6
CONTINUOUS
 62
     7
 10
-70.302796681912966
 20
124.93527291492219
 30
0.0
 11
-71.295353674541204
 21
124.93527291492219
 31
0.0
  0
LINE
  5
61C
  8
DATA
  6
CONTINUOUS
 62
     7
 10
-70.302796681912966
 20
131.73527291492221
 30
0.0
 11
-71.295353674541204
 21
131.73527291492221
 31
0.0
  0
LINE
  5
61D
  8
DATA
  6
CONTINUOUS
 62
     7
 10
-71.295353674541204
 20
131.73527291492221
 30
0.0
 11
-71.295353674541204
 21
124.93527291492219
 31
0.0
  0
ARC
  5
61E
  8
DATA
  6
CONTINUOUS
 62
     7
 10
-49.581966221164848
 20
128.3352729149222
 30
0.0
 40
21.919653161043449
 50
172.13361028960929
 51
187.86638971039059
  0
LINE
  5
61F
  8
DATA
  6
CONTINUOUS
 62
     7
 10
-55.799999999999983
 20
-132.1399999996442
 30
0.0
 11
-68.999999999999986
 21
-132.1399999996442
 31
0.0
  0
LINE
  5
620
  8
DATA
  6
CONTINUOUS
 62
     7
 10
-68.999999999999986
 20
-138.13999999964409
 30
0.0
 11
-50.0
 21
-138.13999999964409
 31
0.0
  0
LINE
  5
621
  8
DATA
  6
CONTINUOUS
 62
     7
 10
-43.999999999999993
 20
-115.3401019465694
 30
0.0
 11
-43.999999999999993
 21
-124.6399999996442
 31
0.0
  0
LINE
  5
622
  8
DATA
  6
CONTINUOUS
 62
     7
 10
-55.999999999999993
 20
-115.3401019465694
 30
0.0
 11
-55.999999999999993
 21
-124.6399999996442
 31
0.0
  0
LINE
  5
623
  8
DATA
  6
CONTINUOUS
 62
     7
 10
-43.999999999999993
 20
-124.6399999996442
 30
0.0
 11
-46.80224131128503
 21
-124.6399999996442
 31
0.0
  0
LINE
  5
624
  8
DATA
  6
CONTINUOUS
 62
     7
 10
-53.197758688714949
 20
-124.6399999996442
 30
0.0
 11
-55.999999999999993
 21
-124.6399999996442
 31
0.0
  0
ARC
  5
625
  8
DATA
  6
CONTINUOUS
 62
     7
 10
-50.0
 20
-119.3648717752362
 30
0.0
 40
7.2248717755919909
 50
116.2701586146453
 51
146.14648972482269
  0
ARC
  5
626
  8
DATA
  6
CONTINUOUS
 62
     7
 10
-50.0
 20
-119.3648717752362
 30
0.0
 40
7.2248717755919927
 50
33.853510275177321
 51
63.729841385354433
  0
ARC
  5
627
  8
DATA
  6
CONTINUOUS
 62
     7
 10
-50.0
 20
-119.3648717752362
 30
0.0
 40
7.2248717755919971
 50
116.2701586146456
 51
116.35238918454419
  0
ARC
  5
628
  8
DATA
  6
CONTINUOUS
 62
     7
 10
-50.000000000000227
 20
-110.2399999996443
 30
0.0
 40
3.499999999999714
 50
101.0361657396559
 51
199.54378189618839
  0
ARC
  5
629
  8
DATA
  6
CONTINUOUS
 62
     7
 10
-50.000000000000227
 20
-110.2399999996443
 30
0.0
 40
3.4999999999997189
 50
340.45621810383972
 51
78.963834260372778
  0
LINE
  5
62A
  8
DATA
  6
CONTINUOUS
 62
     7
 10
-46.701648505369207
 20
-111.41084474505961
 30
0.0
 11
-46.80224131128503
 21
-112.8862058984916
 31
0.0
  0
LINE
  5
62B
  8
DATA
  6
CONTINUOUS
 62
     7
 10
-53.298351494630737
 20
-111.41084474505961
 30
0.0
 11
-53.197758688714927
 21
-112.8862058984916
 31
0.0
  0
ARC
  5
62C
  8
DATA
  6
CONTINUOUS
 62
     7
 10
-50.000000000000242
 20
-109.76702508313581
 30
0.0
 40
1.800000000000213
 50
111.8527329203886
 51
68.147267079668893
  0
LINE
  5
62D
  8
DATA
  6
CONTINUOUS
 62
     7
 10
-49.330000000001093
 20
-108.09636653034831
 30
0.0
 11
-49.330000000001093
 21
-106.8047270847219
 31
0.0
  0
LINE
  5
62E
  8
DATA
  6
CONTINUOUS
 62
     7
 10
-50.670000000001068
 20
-106.8047270847223
 30
0.0
 11
-50.670000000001068
 21
-108.0963665303491
 31
0.0
  0
LINE
  5
62F
  8
DATA
  6
CONTINUOUS
 62
     7
 10
-53.197758688714927
 20
-112.8862058984916
 30
0.0
 11
-53.197758688714927
 21
-135.97252168185199
 31
0.0
  0
LINE
  5
630
  8
DATA
  6
CONTINUOUS
 62
     7
 10
-46.80224131128503
 20
-112.8862058984916
 30
0.0
 11
-46.80224131128503
 21
-135.97252168185199
 31
0.0
  0
ARC
  5
631
  8
DATA
  6
CONTINUOUS
 62
     7
 10
-50.0
 20
-130.24491238863831
 30
0.0
 40
6.5598146960840484
 50
240.82511443128311
 51
299.17488556871689
  0
LINE
  5
632
  8
DATA
  6
CONTINUOUS
 62
     7
 10
-54.799999999999983
 20
-131.1399999996442
 30
0.0
 11
-54.799999999999983
 21
-124.6399999996442
 31
0.0
  0
LINE
  5
633
  8
DATA
  6
CONTINUOUS
 62
     7
 10
-45.199999999999982
 20
-131.1399999996442
 30
0.0
 11
-45.199999999999982
 21
-124.6399999996442
 31
0.0
  0
ARC
  5
634
  8
DATA
  6
CONTINUOUS
 62
     7
 10
-55.799999999999983
 20
-131.1399999996442
 30
0.0
 40
1.0
 50
270.0
 51
0.0
  0
ARC
  5
635
  8
DATA
  6
CONTINUOUS
 62
     7
 10
-44.199999999999982
 20
-131.1399999996442
 30
0.0
 40
1.0
 50
180.0
 51
270.0
  0
ARC
  5
636
  8
DATA
  6
CONTINUOUS
 62
     7
 10
-62.250264617999989
 20
-135.13999999964409
 30
0.0
 40
9.25
 50
161.07535558394881
 51
198.92464441605119
  0
LINE
  5
637
  8
DATA
  6
CONTINUOUS
 62
     7
 10
-70.962345527725915
 20
-130.50746801099999
 30
0.0
 11
-70.962345527725915
 21
-132.1399999996442
 31
0.0
  0
LINE
  5
638
  8
DATA
  6
CONTINUOUS
 62
     7
 10
-70.962345527725915
 20
-138.1399999996442
 30
0.0
 11
-70.962345527725915
 21
-139.77253198828831
 31
0.0
  0
LINE
  5
639
  8
DATA
  6
CONTINUOUS
 62
     7
 10
-68.96234552772593
 20
-130.50746801099999
 30
0.0
 11
-68.96234552772593
 21
-132.1399999996442
 31
0.0
  0
LINE
  5
63A
  8
DATA
  6
CONTINUOUS
 62
     7
 10
-68.96234552772593
 20
-138.1399999996442
 30
0.0
 11
-68.96234552772593
 21
-139.77253198828831
 31
0.0
  0
ARC
  5
63B
  8
DATA
  6
CONTINUOUS
 62
     7
 10
-69.96234552772593
 20
-132.59184527828631
 30
0.0
 40
2.3118452786421542
 50
64.370189971495677
 51
115.62981002850429
  0
ARC
  5
63C
  8
DATA
  6
CONTINUOUS
 62
     7
 10
-69.96234552772593
 20
-137.68815472100201
 30
0.0
 40
2.3118452786421542
 50
244.37018997149571
 51
295.62981002850432
  0
LINE
  5
63D
  8
DATA
  6
CONTINUOUS
 62
     7
 10
-44.199999999999989
 20
-132.1399999996442
 30
0.0
 11
-30.999999999999989
 21
-132.1399999996442
 31
0.0
  0
LINE
  5
63E
  8
DATA
  6
CONTINUOUS
 62
     7
 10
-30.999999999999989
 20
-138.13999999964409
 30
0.0
 11
-50.0
 21
-138.13999999964409
 31
0.0
  0
LINE
  5
63F
  8
DATA
  6
CONTINUOUS
 62
     7
 10
-53.499999999999993
 20
75.0
 30
0.0
 11
-46.499999999999993
 21
75.0
 31
0.0
  0
LINE
  5
640
  8
DATA
  6
CONTINUOUS
 62
     7
 10
-53.499999999999993
 20
72.0
 30
0.0
 11
-46.499999999999993
 21
72.0
 31
0.0
  0
LINE
  5
641
  8
DATA
  6
CONTINUOUS
 62
     7
 10
-53.499999999999993
 20
75.0
 30
0.0
 11
-53.499999999999993
 21
72.0
 31
0.0
  0
LINE
  5
642
  8
DATA
  6
CONTINUOUS
 62
     7
 10
-46.499999999999993
 20
75.0
 30
0.0
 11
-46.499999999999993
 21
72.0
 31
0.0
  0
LINE
  5
643
  8
DATA
  6
CONTINUOUS
 62
     7
 10
-52.449999999999989
 20
72.0
 30
0.0
 11
-47.54999999999999
 21
72.0
 31
0.0
  0
LINE
  5
644
  8
DATA
  6
CONTINUOUS
 62
     7
 10
-52.449999999999989
 20
5.0
 30
0.0
 11
-47.54999999999999
 21
5.0
 31
0.0
  0
LINE
  5
645
  8
DATA
  6
CONTINUOUS
 62
     7
 10
-52.449999999999989
 20
6.5
 30
0.0
 11
-47.54999999999999
 21
6.5
 31
0.0
  0
LINE
  5
646
  8
DATA
  6
CONTINUOUS
 62
     7
 10
-52.449999999999989
 20
8.0
 30
0.0
 11
-47.54999999999999
 21
8.0
 31
0.0
  0
LINE
  5
647
  8
DATA
  6
CONTINUOUS
 62
     7
 10
-52.449999999999989
 20
9.5
 30
0.0
 11
-47.54999999999999
 21
9.5
 31
0.0
  0
LINE
  5
648
  8
DATA
  6
CONTINUOUS
 62
     7
 10
-52.449999999999989
 20
11.0
 30
0.0
 11
-47.54999999999999
 21
11.0
 31
0.0
  0
LINE
  5
649
  8
DATA
  6
CONTINUOUS
 62
     7
 10
-52.449999999999989
 20
12.5
 30
0.0
 11
-47.54999999999999
 21
12.5
 31
0.0
  0
LINE
  5
64A
  8
DATA
  6
CONTINUOUS
 62
     7
 10
-52.449999999999989
 20
14.0
 30
0.0
 11
-47.54999999999999
 21
14.0
 31
0.0
  0
LINE
  5
64B
  8
DATA
  6
CONTINUOUS
 62
     7
 10
-52.449999999999989
 20
15.5
 30
0.0
 11
-47.54999999999999
 21
15.5
 31
0.0
  0
LINE
  5
64C
  8
DATA
  6
CONTINUOUS
 62
     7
 10
-52.449999999999989
 20
17.0
 30
0.0
 11
-47.54999999999999
 21
17.0
 31
0.0
  0
LINE
  5
64D
  8
DATA
  6
CONTINUOUS
 62
     7
 10
-52.449999999999989
 20
18.5
 30
0.0
 11
-47.54999999999999
 21
18.5
 31
0.0
  0
LINE
  5
64E
  8
DATA
  6
CONTINUOUS
 62
     7
 10
-52.449999999999989
 20
20.0
 30
0.0
 11
-47.54999999999999
 21
20.0
 31
0.0
  0
LINE
  5
64F
  8
DATA
  6
CONTINUOUS
 62
     7
 10
-52.449999999999989
 20
21.5
 30
0.0
 11
-47.54999999999999
 21
21.5
 31
0.0
  0
LINE
  5
650
  8
DATA
  6
CONTINUOUS
 62
     7
 10
-52.449999999999989
 20
23.0
 30
0.0
 11
-47.54999999999999
 21
23.0
 31
0.0
  0
LINE
  5
651
  8
DATA
  6
CONTINUOUS
 62
     7
 10
-52.449999999999989
 20
24.5
 30
0.0
 11
-47.54999999999999
 21
24.5
 31
0.0
  0
LINE
  5
652
  8
DATA
  6
CONTINUOUS
 62
     7
 10
-52.449999999999989
 20
26.0
 30
0.0
 11
-47.54999999999999
 21
26.0
 31
0.0
  0
LINE
  5
653
  8
DATA
  6
CONTINUOUS
 62
     7
 10
-52.449999999999989
 20
27.5
 30
0.0
 11
-47.54999999999999
 21
27.5
 31
0.0
  0
LINE
  5
654
  8
DATA
  6
CONTINUOUS
 62
     7
 10
-52.449999999999989
 20
29.0
 30
0.0
 11
-47.54999999999999
 21
29.0
 31
0.0
  0
LINE
  5
655
  8
DATA
  6
CONTINUOUS
 62
     7
 10
-52.449999999999989
 20
30.5
 30
0.0
 11
-47.54999999999999
 21
30.5
 31
0.0
  0
LINE
  5
656
  8
DATA
  6
CONTINUOUS
 62
     7
 10
-52.449999999999989
 20
32.0
 30
0.0
 11
-47.54999999999999
 21
32.0
 31
0.0
  0
LINE
  5
657
  8
DATA
  6
CONTINUOUS
 62
     7
 10
-52.449999999999989
 20
33.5
 30
0.0
 11
-47.54999999999999
 21
33.5
 31
0.0
  0
LINE
  5
658
  8
DATA
  6
CONTINUOUS
 62
     7
 10
-52.449999999999989
 20
35.0
 30
0.0
 11
-47.54999999999999
 21
35.0
 31
0.0
  0
LINE
  5
659
  8
DATA
  6
CONTINUOUS
 62
     7
 10
-52.449999999999989
 20
36.5
 30
0.0
 11
-47.54999999999999
 21
36.5
 31
0.0
  0
LINE
  5
65A
  8
DATA
  6
CONTINUOUS
 62
     7
 10
-52.449999999999989
 20
38.0
 30
0.0
 11
-47.54999999999999
 21
38.0
 31
0.0
  0
LINE
  5
65B
  8
DATA
  6
CONTINUOUS
 62
     7
 10
-52.449999999999989
 20
39.5
 30
0.0
 11
-47.54999999999999
 21
39.5
 31
0.0
  0
LINE
  5
65C
  8
DATA
  6
CONTINUOUS
 62
     7
 10
-52.449999999999989
 20
41.0
 30
0.0
 11
-47.54999999999999
 21
41.0
 31
0.0
  0
LINE
  5
65D
  8
DATA
  6
CONTINUOUS
 62
     7
 10
-52.449999999999989
 20
42.5
 30
0.0
 11
-47.54999999999999
 21
42.5
 31
0.0
  0
LINE
  5
65E
  8
DATA
  6
CONTINUOUS
 62
     7
 10
-52.449999999999989
 20
44.0
 30
0.0
 11
-47.54999999999999
 21
44.0
 31
0.0
  0
LINE
  5
65F
  8
DATA
  6
CONTINUOUS
 62
     7
 10
-52.449999999999989
 20
45.499999999999993
 30
0.0
 11
-47.54999999999999
 21
45.499999999999993
 31
0.0
  0
LINE
  5
660
  8
DATA
  6
CONTINUOUS
 62
     7
 10
-52.449999999999989
 20
47.0
 30
0.0
 11
-47.54999999999999
 21
47.0
 31
0.0
  0
LINE
  5
661
  8
DATA
  6
CONTINUOUS
 62
     7
 10
-52.449999999999989
 20
48.5
 30
0.0
 11
-47.54999999999999
 21
48.5
 31
0.0
  0
LINE
  5
662
  8
DATA
  6
CONTINUOUS
 62
     7
 10
-52.449999999999989
 20
50.0
 30
0.0
 11
-47.54999999999999
 21
50.0
 31
0.0
  0
LINE
  5
663
  8
DATA
  6
CONTINUOUS
 62
     7
 10
-52.449999999999989
 20
51.5
 30
0.0
 11
-47.54999999999999
 21
51.5
 31
0.0
  0
LINE
  5
664
  8
DATA
  6
CONTINUOUS
 62
     7
 10
-52.449999999999989
 20
53.0
 30
0.0
 11
-47.54999999999999
 21
53.0
 31
0.0
  0
LINE
  5
665
  8
DATA
  6
CONTINUOUS
 62
     7
 10
-52.449999999999989
 20
54.5
 30
0.0
 11
-47.54999999999999
 21
54.5
 31
0.0
  0
LINE
  5
666
  8
DATA
  6
CONTINUOUS
 62
     7
 10
-52.449999999999989
 20
56.0
 30
0.0
 11
-47.54999999999999
 21
56.0
 31
0.0
  0
LINE
  5
667
  8
DATA
  6
CONTINUOUS
 62
     7
 10
-52.449999999999989
 20
57.5
 30
0.0
 11
-47.54999999999999
 21
57.5
 31
0.0
  0
LINE
  5
668
  8
DATA
  6
CONTINUOUS
 62
     7
 10
-52.449999999999989
 20
59.0
 30
0.0
 11
-47.54999999999999
 21
59.0
 31
0.0
  0
LINE
  5
669
  8
DATA
  6
CONTINUOUS
 62
     7
 10
-52.449999999999989
 20
60.5
 30
0.0
 11
-47.54999999999999
 21
60.5
 31
0.0
  0
LINE
  5
66A
  8
DATA
  6
CONTINUOUS
 62
     7
 10
-52.449999999999989
 20
62.0
 30
0.0
 11
-47.54999999999999
 21
62.0
 31
0.0
  0
LINE
  5
66B
  8
DATA
  6
CONTINUOUS
 62
     7
 10
-52.449999999999989
 20
63.5
 30
0.0
 11
-47.54999999999999
 21
63.5
 31
0.0
  0
LINE
  5
66C
  8
DATA
  6
CONTINUOUS
 62
     7
 10
-52.449999999999989
 20
65.0
 30
0.0
 11
-47.54999999999999
 21
65.0
 31
0.0
  0
LINE
  5
66D
  8
DATA
  6
CONTINUOUS
 62
     7
 10
-52.449999999999989
 20
66.5
 30
0.0
 11
-47.54999999999999
 21
66.5
 31
0.0
  0
LINE
  5
66E
  8
DATA
  6
CONTINUOUS
 62
     7
 10
-52.449999999999989
 20
68.0
 30
0.0
 11
-47.54999999999999
 21
68.0
 31
0.0
  0
LINE
  5
66F
  8
DATA
  6
CONTINUOUS
 62
     7
 10
-52.449999999999989
 20
69.5
 30
0.0
 11
-47.54999999999999
 21
69.5
 31
0.0
  0
LINE
  5
670
  8
DATA
  6
CONTINUOUS
 62
     7
 10
-52.449999999999989
 20
71.0
 30
0.0
 11
-47.54999999999999
 21
71.0
 31
0.0
  0
LINE
  5
671
  8
DATA
  6
CONTINUOUS
 62
     7
 10
12.000000000000011
 20
-60.0
 30
0.0
 11
20.000000000000011
 21
-56.199719977894851
 31
0.0
  0
ARC
  5
672
  8
DATA
  6
CONTINUOUS
 62
     7
 10
-50.825905148448342
 20
-59.0078599485349
 30
0.0
 40
2.7139327891568641
 50
356.6559742549959
 51
68.096226952564166
  0
ARC
  5
673
  8
DATA
  6
CONTINUOUS
 62
     7
 10
-50.0
 20
-56.953747233107563
 30
0.0
 40
0.5000000074505766
 50
68.096226952564237
 51
111.90377304743571
  0
ARC
  5
674
  8
DATA
  6
CONTINUOUS
 62
     7
 10
-49.174094851551637
 20
-59.0078599485349
 30
0.0
 40
2.7139327891568601
 50
111.90377304743581
 51
184.22062051563799
  0
LINE
  5
675
  8
DATA
  6
STYLE_02
 62
     7
 10
6.100000000000013
 20
54.976024317885049
 30
0.0
 11
6.100000000000013
 21
55.497466872999993
 31
0.0
  0
LINE
  5
676
  8
DATA
  6
STYLE_02
 62
     7
 10
2.1000000000000121
 20
55.497466872999993
 30
0.0
 11
8.1000000000000139
 21
55.497466872999993
 31
0.0
  0
LINE
  5
677
  8
DATA
  6
STYLE_02
 62
     7
 10
4.6300000000000141
 20
68.497466872999993
 30
0.0
 11
8.1000000000000139
 21
68.497466872999993
 31
0.0
  0
LINE
  5
678
  8
DATA
  6
STYLE_02
 62
     7
 10
2.100000000000013
 20
68.467083108274409
 30
0.0
 11
2.100000000000013
 21
55.497466872999993
 31
0.0
  0
ARC
  5
679
  8
DATA
  6
STYLE_02
 62
     7
 10
8.1000000000000139
 20
61.997466872999993
 30
0.0
 40
6.5
 50
270.0
 51
90.0
  0
LINE
  5
67A
  8
DATA
  6
STYLE_02
 62
     7
 10
14.60000000000001
 20
61.997466872999993
 30
0.0
 11
14.60000000000001
 21
55.560076097227558
 31
0.0
  0
LINE
  5
67B
  8
DATA
  6
STYLE_02
 62
     7
 10
13.600000000000019
 20
58.533365257862243
 30
0.0
 11
13.600000000000019
 21
55.560076097227558
 31
0.0
  0
LINE
  5
67C
  8
DATA
  6
STYLE_02
 62
     7
 10
13.600000000000019
 20
55.560076097227558
 30
0.0
 11
14.60000000000001
 21
55.560076097227558
 31
0.0
  0
LINE
  5
67D
  8
DATA
  6
STYLE_02
 62
     7
 10
-5.3999999999999844
 20
71.497466872999979
 30
0.0
 11
4.1299999925494326
 21
71.497466872999979
 31
0.0
  0
LINE
  5
67E
  8
DATA
  6
STYLE_02
 62
     7
 10
-5.3999999999999844
 20
68.967083115724975
 30
0.0
 11
1.599999992549433
 21
68.967083115724975
 31
0.0
  0
LINE
  5
67F
  8
DATA
  6
STYLE_02
 62
     7
 10
4.6300000000000141
 20
70.997466865549399
 30
0.0
 11
4.6300000000000141
 21
68.497466872999993
 31
0.0
  0
LINE
  5
680
  8
DATA
  6
STYLE_02
 62
     7
 10
-11.399999999999981
 20
67.642776587038711
 30
0.0
 11
-11.399999999999981
 21
77.314874799228264
 31
0.0
  0
LINE
  5
681
  8
DATA
  6
STYLE_02
 62
     7
 10
-5.3999999999999844
 20
67.642776587038711
 30
0.0
 11
-5.3999999999999844
 21
77.314874799228264
 31
0.0
  0
LINE
  5
682
  8
DATA
  6
STYLE_02
 62
     7
 10
-11.399999999999981
 20
67.642776587038711
 30
0.0
 11
-5.3999999999999844
 21
67.642776587038711
 31
0.0
  0
LINE
  5
683
  8
DATA
  6
STYLE_02
 62
     7
 10
-8.4924899958707591
 20
85.999999999936676
 30
0.0
 11
-8.3075100041292025
 21
85.999999999936676
 31
0.0
  0
ARC
  5
684
  8
DATA
  6
STYLE_02
 62
     7
 10
-8.3999999999999844
 20
81.1398026278966
 30
0.0
 40
4.8610773388747459
 50
308.10810185233203
 51
231.891898147668
  0
ARC
  5
685
  8
DATA
  6
STYLE_02
 62
     7
 10
4.1299999925494326
 20
70.997466865549399
 30
0.0
 40
0.5000000074505806
 50
0.0
 51
90.0
  0
ARC
  5
686
  8
DATA
  6
STYLE_02
 62
     7
 10
1.599999992549433
 20
68.467083108274409
 30
0.0
 40
0.5000000074505806
 50
0.0
 51
90.0
  0
CIRCLE
  5
687
  8
DATA
  6
STYLE_02
 62
     7
 10
-8.3999999999999844
 20
81.1398026278966
 30
0.0
 40
3.3999999999999981
  0
LINE
  5
688
  8
DATA
  6
STYLE_02
 62
     7
 10
-10.957673036192441
 20
83.379960800868773
 30
0.0
 11
-5.8423269638075288
 21
83.379960800868773
 31
0.0
  0
LINE
  5
689
  8
DATA
  6
STYLE_02
 62
     7
 10
-11.5080558455976
 20
82.518203462431487
 30
0.0
 11
-5.2919441544023664
 21
82.518203462431487
 31
0.0
  0
LINE
  5
68A
  8
DATA
  6
STYLE_02
 62
     7
 10
-11.79143877074578
 20
81.380931357587301
 30
0.0
 11
-5.0085612292541919
 21
81.380931357587301
 31
0.0
  0
LINE
  5
68B
  8
DATA
  6
STYLE_02
 62
     7
 10
-11.74289497341546
 20
80.519276079944319
 30
0.0
 11
-5.0571050265845123
 21
80.519276079944319
 31
0.0
  0
LINE
  5
68C
  8
DATA
  6
STYLE_02
 62
     7
 10
-11.30620594663089
 20
79.375159039018911
 30
0.0
 11
-5.4937940533690792
 21
79.375159039018911
 31
0.0
  0
LINE
  5
68D
  8
DATA
  6
STYLE_02
 62
     7
 10
-10.60339925516578
 20
78.55039502724064
 30
0.0
 11
-6.1966007448341927
 21
78.55039502724064
 31
0.0
  0
ARC
  5
68E
  8
DATA
  6
CONTINUOUS
 62
     7
 10
-63.43657193020146
 20
-12.61192585008626
 30
0.0
 40
6.5454799857954091
 50
146.93851064227809
 51
206.13078550009431
  0
LINE
  5
68F
  8
DATA
  6
CONTINUOUS
 62
     7
 10
-31.596601415794801
 20
0.1942327269347253
 30
0.0
 11
-34.481119975308751
 21
-10.561089852860929
 31
0.0
  0
LINE
  5
690
  8
DATA
  6
CONTINUOUS
 62
     7
 10
-28.746945489556609
 20
-0.3503677107711933
 30
0.0
 11
-31.07775566005424
 21
-9.041112713359837
 31
0.0
  0
ARC
  5
691
  8
DATA
  6
CONTINUOUS
 62
     7
 10
-29.09204812838604
 20
-1.891636293324588
 30
0.0
 40
0.5773502691896183
 50
248.4300116890802
 51
81.543760800851345
  0
ARC
  5
692
  8
DATA
  6
CONTINUOUS
 62
     7
 10
-29.608031689907762
 20
-3.831507693597751
 30
0.0
 40
0.5773502691896235
 50
248.01695621859571
 51
81.956816271332428
  0
ARC
  5
693
  8
DATA
  6
CONTINUOUS
 62
     7
 10
-30.154685652554559
 20
-5.765971074643395
 30
0.0
 40
0.5773502691896142
 50
250.69878947549441
 51
79.274983014437211
  0
ARC
  5
694
  8
DATA
  6
CONTINUOUS
 62
     7
 10
-30.665261194848771
 20
-7.6751720737914857
 30
0.0
 40
0.5773502691896183
 50
250.55827647907989
 51
79.41549601084499
  0
ARC
  5
695
  8
DATA
  6
CONTINUOUS
 62
     7
 10
-29.03670545847724
 20
-0.2726556754552227
 30
0.0
 40
0.3000000000363962
 50
344.98688624496458
 51
64.503519869964066
  0
ARC
  5
696
  8
DATA
  6
CONTINUOUS
 62
     7
 10
-31.306841442616388
 20
0.116520690476845
 30
0.0
 40
0.3000000044446271
 50
96.040822765574589
 51
164.98688624496469
  0
ARC
  5
697
  8
DATA
  6
CONTINUOUS
 62
     7
 10
-30.860872382056371
 20
-4.0977058860594067
 30
0.0
 40
4.5377581430553251
 50
64.503519876799103
 51
96.040822770157789
  0
ARC
  5
698
  8
DATA
  6
CONTINUOUS
 62
     7
 10
-36.563428069798498
 20
-12.61192585008626
 30
0.0
 40
6.5454799857954074
 50
333.86921449990569
 51
33.061489357721882
  0
ARC
  5
699
  8
DATA
  6
CONTINUOUS
 62
     7
 10
-38.625471594260603
 20
-8.9989507446969554
 30
0.0
 40
4.4289873486796187
 50
293.64455824297141
 51
339.34696401146181
  0
ARC
  5
69A
  8
DATA
  6
CONTINUOUS
 62
     7
 10
60.000000000000021
 20
106.4123230666268
 30
0.0
 40
120.5373230666268
 50
279.30566102187669
 51
279.30997451808082
  0
LINE
  5
69B
  8
DATA
  6
CONTINUOUS
 62
     7
 10
41.596601415794808
 20
0.1942327269347253
 30
0.0
 11
44.481119975308772
 21
-10.561089852860929
 31
0.0
  0
LINE
  5
69C
  8
DATA
  6
CONTINUOUS
 62
     7
 10
38.746945489556651
 20
-0.3503677107711933
 30
0.0
 11
41.077755660054258
 21
-9.041112713359837
 31
0.0
  0
ARC
  5
69D
  8
DATA
  6
CONTINUOUS
 62
     7
 10
42.655921618896329
 20
-15.14374234217969
 30
0.0
 40
1.999999999999996
 50
190.10643035660081
 51
222.97248152509769
  0
ARC
  5
69E
  8
DATA
  6
CONTINUOUS
 62
     7
 10
44.31699629721097
 20
-13.596256021458149
 30
0.0
 40
4.270216509445377
 50
222.97248152509781
 51
325.86654132881392
  0
ARC
  5
69F
  8
DATA
  6
CONTINUOUS
 62
     7
 10
48.845563083557693
 20
-9.5899450345291033
 30
0.0
 40
4.0000000000000009
 50
240.0597232811148
 51
264.50749305727788
  0
ARC
  5
6A0
  8
DATA
  6
CONTINUOUS
 62
     7
 10
39.092048128386068
 20
-1.891636293324588
 30
0.0
 40
0.5773502691896183
 50
98.456239199148683
 51
291.56998831091988
  0
ARC
  5
6A1
  8
DATA
  6
CONTINUOUS
 62
     7
 10
39.60803168990779
 20
-3.831507693597751
 30
0.0
 40
0.5773502691896189
 50
98.043183728667557
 51
291.98304378140421
  0
ARC
  5
6A2
  8
DATA
  6
CONTINUOUS
 62
     7
 10
40.154685652554591
 20
-5.765971074643395
 30
0.0
 40
0.5773502691896241
 50
100.7250169855627
 51
289.30121052450562
  0
ARC
  5
6A3
  8
DATA
  6
CONTINUOUS
 62
     7
 10
40.665261194848789
 20
-7.6751720737914857
 30
0.0
 40
0.5773502691896191
 50
100.584503989155
 51
289.44172352091999
  0
ARC
  5
6A4
  8
DATA
  6
CONTINUOUS
 62
     7
 10
39.036705458477272
 20
-0.2726556754552227
 30
0.0
 40
0.3000000000363917
 50
115.49648013003591
 51
195.01311375503539
  0
ARC
  5
6A5
  8
DATA
  6
CONTINUOUS
 62
     7
 10
41.306841442616417
 20
0.116520690476845
 30
0.0
 40
0.3000000044446353
 50
15.01311375503524
 51
83.959177234425425
  0
ARC
  5
6A6
  8
DATA
  6
CONTINUOUS
 62
     7
 10
40.860872382056399
 20
-4.0977058860594067
 30
0.0
 40
4.5377581430553278
 50
83.959177229842183
 51
115.4964801232009
  0
ARC
  5
6A7
  8
DATA
  6
CONTINUOUS
 62
     7
 10
48.62547159426061
 20
-8.9989507446969554
 30
0.0
 40
4.4289873486796116
 50
200.65303598853819
 51
246.3554417570289
  0
ARC
  5
6A8
  8
DATA
  6
CONTINUOUS
 62
     7
 10
60.000000000000021
 20
106.4123230666268
 30
0.0
 40
120.5373230666268
 50
279.30566102187669
 51
279.30997451808082
  0
ARC
  5
6A9
  8
DATA
  6
CONTINUOUS
 62
     7
 10
77.344078381103685
 20
-15.14374234217969
 30
0.0
 40
1.999999999999994
 50
317.02751847490219
 51
349.8935696433993
  0
ARC
  5
6AA
  8
DATA
  6
CONTINUOUS
 62
     7
 10
75.683003702789065
 20
-13.596256021458149
 30
0.0
 40
4.2702165094453743
 50
214.42015416479731
 51
317.02751847490219
  0
ARC
  5
6AB
  8
DATA
  6
CONTINUOUS
 62
     7
 10
71.15443691644235
 20
-9.5899450345291033
 30
0.0
 40
4.0000000000000044
 50
275.492506942722
 51
299.9402767188854
  0
ARC
  5
6AC
  8
DATA
  6
CONTINUOUS
 62
     7
 10
71.374528405739383
 20
-8.9989507446969554
 30
0.0
 40
4.4289873486796196
 50
293.64455824297141
 51
322.01693860195479
  0
ARC
  5
6AD
  8
DATA
  6
CONTINUOUS
 62
     7
 10
46.563428069798533
 20
-12.61192585008626
 30
0.0
 40
6.5454799857954091
 50
146.93851064227809
 51
206.13078550009431
  0
LINE
  5
6AE
  8
DATA
  6
CONTINUOUS
 62
     7
 10
78.403398584205206
 20
0.1942327269347253
 30
0.0
 11
75.518880024691242
 21
-10.561089852860929
 31
0.0
  0
LINE
  5
6AF
  8
DATA
  6
CONTINUOUS
 62
     7
 10
81.253054510443377
 20
-0.3503677107711933
 30
0.0
 11
78.922244339945763
 21
-9.041112713359837
 31
0.0
  0
ARC
  5
6B0
  8
DATA
  6
CONTINUOUS
 62
     7
 10
80.907951871613946
 20
-1.891636293324588
 30
0.0
 40
0.5773502691896183
 50
248.4300116890802
 51
81.543760800851345
  0
ARC
  5
6B1
  8
DATA
  6
CONTINUOUS
 62
     7
 10
80.391968310092224
 20
-3.831507693597751
 30
0.0
 40
0.5773502691896235
 50
248.01695621859571
 51
81.956816271332428
  0
ARC
  5
6B2
  8
DATA
  6
CONTINUOUS
 62
     7
 10
79.845314347445424
 20
-5.765971074643395
 30
0.0
 40
0.5773502691896142
 50
250.69878947549441
 51
79.274983014437211
  0
ARC
  5
6B3
  8
DATA
  6
CONTINUOUS
 62
     7
 10
79.334738805151233
 20
-7.6751720737914857
 30
0.0
 40
0.5773502691896183
 50
250.55827647907989
 51
79.41549601084499
  0
ARC
  5
6B4
  8
DATA
  6
CONTINUOUS
 62
     7
 10
80.963294541522757
 20
-0.2726556754552227
 30
0.0
 40
0.3000000000363962
 50
344.98688624496458
 51
64.503519869964066
  0
ARC
  5
6B5
  8
DATA
  6
CONTINUOUS
 62
     7
 10
78.693158557383626
 20
0.116520690476845
 30
0.0
 40
0.3000000044446271
 50
96.040822765574589
 51
164.98688624496469
  0
ARC
  5
6B6
  8
DATA
  6
CONTINUOUS
 62
     7
 10
79.139127617943615
 20
-4.0977058860594067
 30
0.0
 40
4.5377581430553251
 50
64.503519876799103
 51
96.040822770157789
  0
ARC
  5
6B7
  8
DATA
  6
CONTINUOUS
 62
     7
 10
73.436571930201481
 20
-12.61192585008626
 30
0.0
 40
6.5454799857954074
 50
333.86921449990569
 51
33.061489357721882
  0
ARC
  5
6B8
  8
DATA
  6
CONTINUOUS
 62
     7
 10
71.374528405739383
 20
-8.9989507446969554
 30
0.0
 40
4.4289873486796187
 50
293.64455824297141
 51
339.34696401146181
  0
ARC
  5
6B9
  8
DATA
  6
CONTINUOUS
 62
     7
 10
-37.749735381999983
 20
-135.13999999964409
 30
0.0
 40
9.25
 50
341.07535558394881
 51
18.924644416051251
  0
LINE
  5
6BA
  8
DATA
  6
CONTINUOUS
 62
     7
 10
-29.037654472274031
 20
-130.50746801099999
 30
0.0
 11
-29.037654472274031
 21
-132.1399999996442
 31
0.0
  0
LINE
  5
6BB
  8
DATA
  6
CONTINUOUS
 62
     7
 10
-29.037654472274031
 20
-138.1399999996442
 30
0.0
 11
-29.037654472274031
 21
-139.77253198828831
 31
0.0
  0
LINE
  5
6BC
  8
DATA
  6
CONTINUOUS
 62
     7
 10
-31.037654472274031
 20
-130.50746801099999
 30
0.0
 11
-31.037654472274031
 21
-132.1399999996442
 31
0.0
  0
LINE
  5
6BD
  8
DATA
  6
CONTINUOUS
 62
     7
 10
-31.037654472274031
 20
-138.1399999996442
 30
0.0
 11
-31.037654472274031
 21
-139.77253198828831
 31
0.0
  0
ARC
  5
6BE
  8
DATA
  6
CONTINUOUS
 62
     7
 10
-30.037654472274031
 20
-132.59184527828631
 30
0.0
 40
2.3118452786421542
 50
64.370189971495677
 51
115.62981002850429
  0
ARC
  5
6BF
  8
DATA
  6
CONTINUOUS
 62
     7
 10
-30.037654472274031
 20
-137.68815472100201
 30
0.0
 40
2.3118452786421542
 50
244.37018997149571
 51
295.62981002850432
  0
LINE
  5
6C0
  8
DATA
  6
STYLE_02
 62
     7
 10
-51.149999999999977
 20
55.555599482730003
 30
0.0
 11
-48.850000000000001
 21
55.555599482730003
 31
0.0
  0
LINE
  5
6C1
  8
DATA
  6
STYLE_02
 62
     7
 10
-55.999999999999993
 20
58.05559948273001
 30
0.0
 11
-55.999999999999993
 21
66.055599482730003
 31
0.0
  0
LINE
  5
6C2
  8
DATA
  6
STYLE_02
 62
     7
 10
-43.999999999999993
 20
66.055599482730003
 30
0.0
 11
-43.999999999999993
 21
58.05559948273001
 31
0.0
  0
ARC
  5
6C3
  8
DATA
  6
STYLE_02
 62
     7
 10
-49.411669435216027
 20
60.470670080736767
 30
0.0
 40
8.6369865147582043
 50
110.59630770918859
 51
139.7120475551063
  0
ARC
  5
6C4
  8
DATA
  6
STYLE_02
 62
     7
 10
-50.588330564783952
 20
60.470670080736767
 30
0.0
 40
8.6369865147582043
 50
40.287952444893669
 51
69.403692290811421
  0
ARC
  5
6C5
  8
DATA
  6
STYLE_02
 62
     7
 10
-49.411669435216027
 20
63.640528884723217
 30
0.0
 40
8.6369865147582043
 50
220.2879524448937
 51
249.40369229081139
  0
ARC
  5
6C6
  8
DATA
  6
STYLE_02
 62
     7
 10
-50.588330564783952
 20
63.640528884723217
 30
0.0
 40
8.6369865147582043
 50
290.59630770918858
 51
319.71204755510632
  0
LINE
  5
6C7
  8
DATA
  6
STYLE_02
 62
     7
 10
-54.475000000000001
 20
71.555599482730003
 30
0.0
 11
-53.204385329558242
 21
71.555599482730003
 31
0.0
  0
LINE
  5
6C8
  8
DATA
  6
STYLE_02
 62
     7
 10
-54.47499999999998
 20
71.555599482730003
 30
0.0
 11
-54.47499999999998
 21
67.467828050072555
 31
0.0
  0
LINE
  5
6C9
  8
DATA
  6
STYLE_02
 62
     7
 10
-45.524999999999977
 20
71.555599482730003
 30
0.0
 11
-45.524999999999977
 21
67.467828050072555
 31
0.0
  0
LINE
  5
6CA
  8
DATA
  6
STYLE_02
 62
     7
 10
-45.524999999999977
 20
71.555599482730003
 30
0.0
 11
-46.795614670441743
 21
71.555599482730003
 31
0.0
  0
LINE
  5
6CB
  8
DATA
  6
STYLE_02
 62
     7
 10
-51.149999999999977
 20
55.555599482730003
 30
0.0
 11
-51.149999999999977
 21
66.555599482730003
 31
0.0
  0
LINE
  5
6CC
  8
DATA
  6
STYLE_02
 62
     7
 10
-48.84999999999998
 20
66.555599482730003
 30
0.0
 11
-48.84999999999998
 21
55.555599482730003
 31
0.0
  0
LINE
  5
6CD
  8
DATA
  6
STYLE_02
 62
     7
 10
-51.149999999999977
 20
66.555599482730003
 30
0.0
 11
-48.84999999999998
 21
66.555599482730003
 31
0.0
  0
LINE
  5
6CE
  8
DATA
  6
STYLE_02
 62
     7
 10
-52.449999999999989
 20
62.155599482729997
 30
0.0
 11
-51.149999999999977
 21
62.155599482729997
 31
0.0
  0
LINE
  5
6CF
  8
DATA
  6
STYLE_02
 62
     7
 10
-48.84999999999998
 20
62.155599482729997
 30
0.0
 11
-47.54999999999999
 21
62.155599482729997
 31
0.0
  0
LINE
  5
6D0
  8
DATA
  6
STYLE_02
 62
     7
 10
-47.54999999999999
 20
59.955599482730001
 30
0.0
 11
-48.850000000000001
 21
59.955599482730001
 31
0.0
  0
LINE
  5
6D1
  8
DATA
  6
STYLE_02
 62
     7
 10
-51.149999999999977
 20
59.955599482730001
 30
0.0
 11
-52.449999999999989
 21
59.955599482730001
 31
0.0
  0
ARC
  5
6D2
  8
DATA
  6
STYLE_02
 62
     7
 10
-71.212673428687538
 20
193.24359907779879
 30
0.0
 40
120.5373230666267
 50
270.69002548191918
 51
270.6943389781232
  0
ARC
  5
6D3
  8
DATA
  6
STYLE_02
 62
     7
 10
-50.0
 20
191.96792254935681
 30
0.0
 40
120.5373230666268
 50
272.12761941520739
 51
275.492506942722
  0
ARC
  5
6D4
  8
DATA
  6
STYLE_02
 62
     7
 10
-50.0
 20
191.96792254935681
 30
0.0
 40
120.5373230666268
 50
279.30566102187669
 51
279.30997451808082
  0
ARC
  5
6D5
  8
DATA
  6
STYLE_02
 62
     7
 10
-49.699999999999967
 20
189.45602892758609
 30
0.0
 40
120.5373230666267
 50
264.07225037488757
 51
267.72967453414242
  0
ARC
  5
6D6
  8
DATA
  6
STYLE_02
 62
     7
 10
-50.0
 20
189.46792254935681
 30
0.0
 40
120.5373230666268
 50
272.12761941520739
 51
275.79014999196937
  0
LINE
  5
6D7
  8
DATA
  6
STYLE_02
 62
     7
 10
-68.403398584205164
 20
85.749832209664731
 30
0.0
 11
-65.518880024691214
 21
74.994509629869043
 31
0.0
  0
LINE
  5
6D8
  8
DATA
  6
STYLE_02
 62
     7
 10
-71.253054510443363
 20
85.205231771958793
 30
0.0
 11
-68.922244339945749
 21
76.514486769370151
 31
0.0
  0
ARC
  5
6D9
  8
DATA
  6
STYLE_02
 62
     7
 10
-67.344078381103657
 20
70.41185714055031
 30
0.0
 40
1.999999999999996
 50
190.10643035660081
 51
222.97248152509769
  0
ARC
  5
6DA
  8
DATA
  6
STYLE_02
 62
     7
 10
-65.683003702789023
 20
71.959343461271857
 30
0.0
 40
4.2702165094453779
 50
222.97248152509781
 51
325.86654132881392
  0
ARC
  5
6DB
  8
DATA
  6
STYLE_02
 62
     7
 10
-61.1544369164423
 20
75.965654448200894
 30
0.0
 40
3.999999999999996
 50
240.05972328111449
 51
264.50749305727788
  0
ARC
  5
6DC
  8
DATA
  6
STYLE_02
 62
     7
 10
-50.0
 20
191.96792254935681
 30
0.0
 40
120.5373230666267
 50
264.50749305727788
 51
267.8723871878201
  0
ARC
  5
6DD
  8
DATA
  6
STYLE_02
 62
     7
 10
-70.907951871613946
 20
83.663963189405436
 30
0.0
 40
0.5773502691896095
 50
98.456239199148783
 51
291.5699883109196
  0
ARC
  5
6DE
  8
DATA
  6
STYLE_02
 62
     7
 10
-70.391968310092196
 20
81.724091789132231
 30
0.0
 40
0.5773502691896205
 50
98.043183728667557
 51
291.98304378140421
  0
ARC
  5
6DF
  8
DATA
  6
STYLE_02
 62
     7
 10
-69.845314347445395
 20
79.7896284080866
 30
0.0
 40
0.5773502691896346
 50
100.7250169855625
 51
289.30121052450568
  0
ARC
  5
6E0
  8
DATA
  6
STYLE_02
 62
     7
 10
-69.334738805151204
 20
77.880427408938516
 30
0.0
 40
0.5773502691896261
 50
100.5845039891548
 51
289.44172352092028
  0
ARC
  5
6E1
  8
DATA
  6
STYLE_02
 62
     7
 10
-70.963294541522728
 20
85.282943807274762
 30
0.0
 40
0.3000000000363884
 50
115.4964801300362
 51
195.01311375503511
  0
ARC
  5
6E2
  8
DATA
  6
STYLE_02
 62
     7
 10
-68.693158557383555
 20
85.672120173206864
 30
0.0
 40
0.3000000044446358
 50
15.01311375503556
 51
83.959177234425454
  0
ARC
  5
6E3
  8
DATA
  6
STYLE_02
 62
     7
 10
-69.139127617943601
 20
81.457893596670587
 30
0.0
 40
4.537758143055326
 50
83.959177229842183
 51
115.4964801232009
  0
ARC
  5
6E4
  8
DATA
  6
STYLE_02
 62
     7
 10
-61.37452840573939
 20
76.556648738033047
 30
0.0
 40
4.4289873486796116
 50
200.65303598853819
 51
246.3554417570289
  0
ARC
  5
6E5
  8
DATA
  6
STYLE_02
 62
     7
 10
-50.0
 20
191.96792254935681
 30
0.0
 40
120.5373230666268
 50
279.30566102187669
 51
279.30997451808082
  0
ARC
  5
6E6
  8
DATA
  6
STYLE_02
 62
     7
 10
-32.655921618896322
 20
70.41185714055031
 30
0.0
 40
1.9999999999999969
 50
317.02751847490219
 51
349.8935696433993
  0
ARC
  5
6E7
  8
DATA
  6
STYLE_02
 62
     7
 10
-34.316996297210949
 20
71.959343461271857
 30
0.0
 40
4.270216509445377
 50
214.4201541647974
 51
317.02751847490219
  0
ARC
  5
6E8
  8
DATA
  6
STYLE_02
 62
     7
 10
-38.845563083557671
 20
75.965654448200894
 30
0.0
 40
4.0
 50
275.492506942722
 51
299.9402767188854
  0
ARC
  5
6E9
  8
DATA
  6
STYLE_02
 62
     7
 10
-38.625471594260603
 20
76.556648738033047
 30
0.0
 40
4.428987348679617
 50
293.64455824297141
 51
322.01693860195491
  0
LINE
  5
6EA
  8
DATA
  6
STYLE_02
 62
     7
 10
-45.525000000000013
 20
69.025215725454999
 30
0.0
 11
-45.524999999999977
 21
71.555599482730003
 31
0.0
  0
ARC
  5
6EB
  8
DATA
  6
STYLE_02
 62
     7
 10
-63.43657193020146
 20
72.943673632643737
 30
0.0
 40
6.5454799857954074
 50
146.9385106422782
 51
206.13078550009431
  0
LINE
  5
6EC
  8
DATA
  6
STYLE_02
 62
     7
 10
-31.596601415794801
 20
85.749832209664731
 30
0.0
 11
-34.481119975308751
 21
74.994509629869043
 31
0.0
  0
LINE
  5
6ED
  8
DATA
  6
STYLE_02
 62
     7
 10
-28.746945489556609
 20
85.205231771958793
 30
0.0
 11
-31.07775566005424
 21
76.514486769370151
 31
0.0
  0
ARC
  5
6EE
  8
DATA
  6
STYLE_02
 62
     7
 10
-29.09204812838604
 20
83.663963189405436
 30
0.0
 40
0.577350269189625
 50
248.4300116890804
 51
81.543760800851175
  0
ARC
  5
6EF
  8
DATA
  6
STYLE_02
 62
     7
 10
-29.608031689907762
 20
81.724091789132231
 30
0.0
 40
0.5773502691896219
 50
248.01695621859571
 51
81.956816271332514
  0
ARC
  5
6F0
  8
DATA
  6
STYLE_02
 62
     7
 10
-30.154685652554559
 20
79.7896284080866
 30
0.0
 40
0.5773502691896109
 50
250.69878947549429
 51
79.274983014437439
  0
ARC
  5
6F1
  8
DATA
  6
STYLE_02
 62
     7
 10
-30.665261194848771
 20
77.880427408938516
 30
0.0
 40
0.5773502691896151
 50
250.55827647907981
 51
79.415496010845132
  0
ARC
  5
6F2
  8
DATA
  6
STYLE_02
 62
     7
 10
-29.03670545847724
 20
85.282943807274762
 30
0.0
 40
0.3000000000363958
 50
344.98688624496481
 51
64.503519869963782
  0
ARC
  5
6F3
  8
DATA
  6
STYLE_02
 62
     7
 10
-31.306841442616388
 20
85.672120173206864
 30
0.0
 40
0.3000000044446288
 50
96.040822765574575
 51
164.9868862449643
  0
ARC
  5
6F4
  8
DATA
  6
STYLE_02
 62
     7
 10
-30.860872382056371
 20
81.457893596670587
 30
0.0
 40
4.5377581430553233
 50
64.503519876799075
 51
96.040822770157789
  0
ARC
  5
6F5
  8
DATA
  6
STYLE_02
 62
     7
 10
-36.563428069798498
 20
72.943673632643737
 30
0.0
 40
6.5454799857954047
 50
333.86921449990581
 51
33.061489357721833
  0
ARC
  5
6F6
  8
DATA
  6
STYLE_02
 62
     7
 10
-38.625471594260603
 20
76.556648738033047
 30
0.0
 40
4.428987348679617
 50
293.64455824297141
 51
339.34696401146181
  0
ARC
  5
6F7
  8
DATA
  6
STYLE_02
 62
     7
 10
60.000000000000021
 20
191.97227133962679
 30
0.0
 40
120.5373230666268
 50
272.27032546585758
 51
275.49250694272212
  0
ARC
  5
6F8
  8
DATA
  6
STYLE_02
 62
     7
 10
60.000000000000021
 20
189.47227133962679
 30
0.0
 40
120.5373230666267
 50
264.20985000803091
 51
272.27032546585781
  0
ARC
  5
6F9
  8
DATA
  6
STYLE_02
 62
     7
 10
60.000000000000021
 20
189.47227133962679
 30
0.0
 40
120.5373230666268
 50
272.27032546585758
 51
275.79014999196937
  0
ARC
  5
6FA
  8
DATA
  6
STYLE_02
 62
     7
 10
60.000000000000021
 20
191.97227133962679
 30
0.0
 40
120.5373230666267
 50
264.50749305727788
 51
272.3695686430126
  0
ARC
  5
6FB
  8
DATA
  6
STYLE_02
 62
     7
 10
38.78732657131247
 20
193.24794786806879
 30
0.0
 40
120.5373230666267
 50
270.69002548191918
 51
270.6943389781232
  0
ARC
  5
6FC
  8
DATA
  6
STYLE_02
 62
     7
 10
60.000000000000021
 20
191.97227133962679
 30
0.0
 40
120.5373230666268
 50
279.30566102187669
 51
279.30997451808082
  0
LINE
  5
6FD
  8
DATA
  6
STYLE_02
 62
     7
 10
41.596601415794808
 20
85.754180999934732
 30
0.0
 11
44.481119975308772
 21
74.998858420139058
 31
0.0
  0
LINE
  5
6FE
  8
DATA
  6
STYLE_02
 62
     7
 10
38.746945489556651
 20
85.209580562228794
 30
0.0
 11
41.077755660054258
 21
76.518835559640166
 31
0.0
  0
ARC
  5
6FF
  8
DATA
  6
STYLE_02
 62
     7
 10
42.655921618896329
 20
70.416205930820311
 30
0.0
 40
1.999999999999996
 50
190.10643035660081
 51
222.97248152509769
  0
ARC
  5
700
  8
DATA
  6
STYLE_02
 62
     7
 10
44.31699629721097
 20
71.963692251541843
 30
0.0
 40
4.2702165094453779
 50
222.97248152509781
 51
325.86654132881392
  0
ARC
  5
701
  8
DATA
  6
STYLE_02
 62
     7
 10
48.845563083557693
 20
75.970003238470895
 30
0.0
 40
3.999999999999996
 50
240.05972328111449
 51
264.50749305727788
  0
ARC
  5
702
  8
DATA
  6
STYLE_02
 62
     7
 10
39.092048128386068
 20
83.668311979675423
 30
0.0
 40
0.5773502691896095
 50
98.456239199148783
 51
291.5699883109196
  0
ARC
  5
703
  8
DATA
  6
STYLE_02
 62
     7
 10
39.60803168990779
 20
81.728440579402218
 30
0.0
 40
0.5773502691896205
 50
98.043183728667557
 51
291.98304378140421
  0
ARC
  5
704
  8
DATA
  6
STYLE_02
 62
     7
 10
40.154685652554591
 20
79.793977198356586
 30
0.0
 40
0.5773502691896346
 50
100.7250169855625
 51
289.30121052450568
  0
ARC
  5
705
  8
DATA
  6
STYLE_02
 62
     7
 10
40.665261194848789
 20
77.884776199208517
 30
0.0
 40
0.5773502691896261
 50
100.5845039891548
 51
289.44172352092028
  0
ARC
  5
706
  8
DATA
  6
STYLE_02
 62
     7
 10
39.036705458477272
 20
85.287292597544749
 30
0.0
 40
0.3000000000363884
 50
115.4964801300362
 51
195.01311375503511
  0
ARC
  5
707
  8
DATA
  6
STYLE_02
 62
     7
 10
41.306841442616417
 20
85.676468963476836
 30
0.0
 40
0.3000000044446358
 50
15.01311375503556
 51
83.959177234425454
  0
ARC
  5
708
  8
DATA
  6
STYLE_02
 62
     7
 10
40.860872382056399
 20
81.462242386940616
 30
0.0
 40
4.537758143055326
 50
83.959177229842183
 51
115.4964801232009
  0
ARC
  5
709
  8
DATA
  6
STYLE_02
 62
     7
 10
48.62547159426061
 20
76.560997528303034
 30
0.0
 40
4.4289873486796116
 50
200.65303598853819
 51
246.3554417570289
  0
ARC
  5
70A
  8
DATA
  6
STYLE_02
 62
     7
 10
60.000000000000021
 20
191.97227133962679
 30
0.0
 40
120.5373230666268
 50
279.30566102187669
 51
279.30997451808082
  0
ARC
  5
70B
  8
DATA
  6
STYLE_02
 62
     7
 10
77.344078381103685
 20
70.416205930820311
 30
0.0
 40
1.9999999999999969
 50
317.02751847490219
 51
349.8935696433993
  0
ARC
  5
70C
  8
DATA
  6
STYLE_02
 62
     7
 10
75.683003702789065
 20
71.963692251541843
 30
0.0
 40
4.270216509445377
 50
214.4201541647974
 51
317.02751847490219
  0
ARC
  5
70D
  8
DATA
  6
STYLE_02
 62
     7
 10
71.15443691644235
 20
75.970003238470895
 30
0.0
 40
4.0
 50
275.492506942722
 51
299.9402767188854
  0
ARC
  5
70E
  8
DATA
  6
STYLE_02
 62
     7
 10
71.374528405739383
 20
76.560997528303034
 30
0.0
 40
4.428987348679617
 50
293.64455824297141
 51
322.01693860195491
  0
ARC
  5
70F
  8
DATA
  6
STYLE_02
 62
     7
 10
46.563428069798533
 20
72.948022422913738
 30
0.0
 40
6.5454799857954074
 50
146.9385106422782
 51
206.13078550009431
  0
LINE
  5
710
  8
DATA
  6
STYLE_02
 62
     7
 10
78.403398584205206
 20
85.754180999934732
 30
0.0
 11
75.518880024691242
 21
74.998858420139058
 31
0.0
  0
LINE
  5
711
  8
DATA
  6
STYLE_02
 62
     7
 10
81.253054510443377
 20
85.209580562228794
 30
0.0
 11
78.922244339945763
 21
76.518835559640166
 31
0.0
  0
ARC
  5
712
  8
DATA
  6
STYLE_02
 62
     7
 10
80.907951871613946
 20
83.668311979675423
 30
0.0
 40
0.577350269189625
 50
248.4300116890804
 51
81.543760800851175
  0
ARC
  5
713
  8
DATA
  6
STYLE_02
 62
     7
 10
80.391968310092224
 20
81.728440579402218
 30
0.0
 40
0.5773502691896219
 50
248.01695621859571
 51
81.956816271332514
  0
ARC
  5
714
  8
DATA
  6
STYLE_02
 62
     7
 10
79.845314347445424
 20
79.793977198356586
 30
0.0
 40
0.5773502691896109
 50
250.69878947549429
 51
79.274983014437439
  0
ARC
  5
715
  8
DATA
  6
STYLE_02
 62
     7
 10
79.334738805151233
 20
77.884776199208517
 30
0.0
 40
0.5773502691896151
 50
250.55827647907981
 51
79.415496010845132
  0
ARC
  5
716
  8
DATA
  6
STYLE_02
 62
     7
 10
80.963294541522757
 20
85.287292597544749
 30
0.0
 40
0.3000000000363958
 50
344.98688624496481
 51
64.503519869963782
  0
ARC
  5
717
  8
DATA
  6
STYLE_02
 62
     7
 10
78.693158557383626
 20
85.676468963476836
 30
0.0
 40
0.3000000044446288
 50
96.040822765574575
 51
164.9868862449643
  0
ARC
  5
718
  8
DATA
  6
STYLE_02
 62
     7
 10
79.139127617943615
 20
81.462242386940616
 30
0.0
 40
4.5377581430553233
 50
64.503519876799075
 51
96.040822770157789
  0
ARC
  5
719
  8
DATA
  6
STYLE_02
 62
     7
 10
73.436571930201481
 20
72.948022422913738
 30
0.0
 40
6.5454799857954047
 50
333.86921449990581
 51
33.061489357721833
  0
ARC
  5
71A
  8
DATA
  6
STYLE_02
 62
     7
 10
71.374528405739383
 20
76.560997528303034
 30
0.0
 40
4.428987348679617
 50
293.64455824297141
 51
339.34696401146181
  0
ENDSEC
  0
EOF
