  0
SECTION
  2
HEADER
  9
$ACADVER
  1
AC1009
  9
$INSBASE
 10
0.0
 20
0.0
 30
0.0
  9
$EXTMIN
 10
-35.008239117460562
 20
-64.635614311817548
 30
-0.0015258207003583
  9
$EXTMAX
 10
235.00824037474621
 20
336.77905025076473
 30
0.0000000349246037
  9
$LIMMIN
 10
0.0
 20
0.0
  9
$LIMMAX
 10
0.0
 20
0.0
  9
$ORTHOMODE
 70
     0
  9
$REGENMODE
 70
     1
  9
$FILLMODE
 70
     1
  9
$QTEXTMODE
 70
     0
  9
$MIRRTEXT
 70
     1
  9
$DRAGMODE
 70
     2
  9
$LTSCALE
 40
7.6199999999999983
  9
$OSMODE
 70
   231
  9
$ATTMODE
 70
     1
  9
$TEXTSIZE
 40
0.0
  9
$TRACEWID
 40
1.0
  9
$TEXTSTYLE
  7
STANDARD
  9
$CLAYER
  8
DATA
  9
$CELTYPE
  6
BYLAYER
  9
$CECOLOR
 62
   256
  9
$DIMSCALE
 40
1.0
  9
$DIMASZ
 40
0.18
  9
$DIMEXO
 40
0.0625
  9
$DIMDLI
 40
0.38
  9
$DIMRND
 40
0.0
  9
$DIMDLE
 40
0.0
  9
$DIMEXE
 40
0.18
  9
$DIMTP
 40
0.0
  9
$DIMTM
 40
0.0
  9
$DIMTXT
 40
0.18
  9
$DIMCEN
 40
0.09
  9
$DIMTSZ
 40
0.0
  9
$DIMTOL
 70
     0
  9
$DIMLIM
 70
     0
  9
$DIMTIH
 70
     1
  9
$DIMTOH
 70
     1
  9
$DIMSE1
 70
     0
  9
$DIMSE2
 70
     0
  9
$DIMTAD
 70
     0
  9
$DIMZIN
 70
     0
  9
$DIMBLK
  1

  9
$DIMASO
 70
     1
  9
$DIMSHO
 70
     1
  9
$DIMPOST
  1

  9
$DIMAPOST
  1

  9
$DIMALT
 70
     0
  9
$DIMALTD
 70
     2
  9
$DIMALTF
 40
25.399999999999999
  9
$DIMLFAC
 40
1.0
  9
$DIMTOFL
 70
     0
  9
$DIMTVP
 40
0.0
  9
$DIMTIX
 70
     0
  9
$DIMSOXD
 70
     0
  9
$DIMSAH
 70
     0
  9
$DIMBLK1
  1

  9
$DIMBLK2
  1

  9
$DIMSTYLE
  2
STANDARD
  9
$DIMCLRD
 70
     0
  9
$DIMCLRE
 70
     0
  9
$DIMCLRT
 70
     0
  9
$DIMTFAC
 40
1.0
  9
$DIMGAP
 40
0.09
  9
$LUNITS
 70
     2
  9
$LUPREC
 70
     4
  9
$SKETCHINC
 40
0.1
  9
$FILLETRAD
 40
0.0
  9
$AUNITS
 70
     0
  9
$AUPREC
 70
     0
  9
$MENU
  1
acad
  9
$ELEVATION
 40
0.0
  9
$PELEVATION
 40
0.0
  9
$THICKNESS
 40
0.0
  9
$LIMCHECK
 70
     0
  9
$BLIPMODE
 70
     0
  9
$CHAMFERA
 40
0.0
  9
$CHAMFERB
 40
0.0
  9
$SKPOLY
 70
     0
  9
$TDCREATE
 40
2456597.4506712961
  9
$TDUPDATE
 40
2456597.462933993
  9
$TDINDWG
 40
0.0002889352
  9
$TDUSRTIMER
 40
0.0002889005
  9
$USRTIMER
 70
     1
  9
$ANGBASE
 50
0.0
  9
$ANGDIR
 70
     0
  9
$PDMODE
 70
     1
  9
$PDSIZE
 40
-2.0
  9
$PLINEWID
 40
0.0
  9
$COORDS
 70
     2
  9
$SPLFRAME
 70
     0
  9
$SPLINETYPE
 70
     6
  9
$SPLINESEGS
 70
     8
  9
$ATTDIA
 70
     0
  9
$ATTREQ
 70
     1
  9
$HANDLING
 70
     1
  9
$HANDSEED
  5
212
  9
$SURFTAB1
 70
     6
  9
$SURFTAB2
 70
     6
  9
$SURFTYPE
 70
     6
  9
$SURFU
 70
     6
  9
$SURFV
 70
     6
  9
$UCSNAME
  2

  9
$UCSORG
 10
0.0
 20
0.0
 30
0.0
  9
$UCSXDIR
 10
1.0
 20
0.0
 30
0.0
  9
$UCSYDIR
 10
0.0
 20
1.0
 30
0.0
  9
$PUCSNAME
  2

  9
$PUCSORG
 10
0.0
 20
0.0
 30
0.0
  9
$PUCSXDIR
 10
1.0
 20
0.0
 30
0.0
  9
$PUCSYDIR
 10
0.0
 20
1.0
 30
0.0
  9
$USERI1
 70
     0
  9
$USERI2
 70
     0
  9
$USERI3
 70
     0
  9
$USERI4
 70
     0
  9
$USERI5
 70
     0
  9
$USERR1
 40
0.0
  9
$USERR2
 40
0.0
  9
$USERR3
 40
0.0
  9
$USERR4
 40
0.0
  9
$USERR5
 40
0.0
  9
$WORLDVIEW
 70
     1
  9
$SHADEDGE
 70
     3
  9
$SHADEDIF
 70
    70
  9
$TILEMODE
 70
     1
  9
$MAXACTVP
 70
    64
  9
$PLIMCHECK
 70
     0
  9
$PEXTMIN
 10
1.0000000000000000E+020
 20
1.0000000000000000E+020
 30
1.0000000000000000E+020
  9
$PEXTMAX
 10
-1.0000000000000000E+020
 20
-1.0000000000000000E+020
 30
-1.0000000000000000E+020
  9
$PLIMMIN
 10
0.0
 20
0.0
  9
$PLIMMAX
 10
12.0
 20
9.0
  9
$UNITMODE
 70
     0
  9
$VISRETAIN
 70
     0
  9
$PLINEGEN
 70
     1
  9
$PSLTSCALE
 70
     0
  0
ENDSEC
  0
SECTION
  2
TABLES
  0
TABLE
  2
VPORT
 70
     1
  0
VPORT
  2
*ACTIVE
 70
     0
 10
0.0
 20
0.0
 11
1.0
 21
1.0
 12
100.0000006286427
 22
136.46635303785581
 13
0.0
 23
0.0
 14
1.0
 24
1.0
 15
0.0
 25
0.0
 16
0.0
 26
0.0
 36
1.0
 17
0.0
 27
0.0
 37
0.0
 40
403.77992509058788
 41
2.1787122207621552
 42
50.0
 43
0.0
 44
0.0
 50
0.0
 51
0.0
 71
     0
 72
  2000
 73
     1
 74
     1
 75
     0
 76
     0
 77
     0
 78
     0
  0
ENDTAB
  0
TABLE
  2
LTYPE
 70
     4
  0
LTYPE
  2
CONTINUOUS
 70
     0
  3
Solid line
 72
    65
 73
     0
 40
0.0
  0
ENDTAB
  0
TABLE
  2
LAYER
 70
     5
  0
LAYER
  2
0
 70
     0
 62
     7
  6
CONTINUOUS
  0
LAYER
  2
DATA
 70
     0
 62
     7
  6
CONTINUOUS
  0
LAYER
  2
HIBINO-BASE
 70
     0
 62
     7
  6
CONTINUOUS
  0
LAYER
  2
SPEC
 70
     0
 62
     7
  6
CONTINUOUS
  0
LAYER
  2
DIMNSIONS
 70
     0
 62
     7
  6
CONTINUOUS
  0
ENDTAB
  0
TABLE
  2
STYLE
 70
     3
  0
STYLE
  2
STANDARD
 70
     0
 40
0.0
 41
1.0
 50
0.0
 71
     0
 42
0.0
  3
txt
  4
BIGFONT.SHX
  0
ENDTAB
  0
TABLE
  2
VIEW
 70
     0
  0
ENDTAB
  0
TABLE
  2
UCS
 70
     0
  0
ENDTAB
  0
TABLE
  2
APPID
 70
     4
  0
APPID
  2
ACAD
 70
     0
  0
APPID
  2
ACADANNOTATIVE
 70
     0
  0
APPID
  2
ACAD_NAV_VCDISPLAY
 70
     0
  0
APPID
  2
ACAD_MLEADERVER
 70
     0
  0
ENDTAB
  0
TABLE
  2
DIMSTYLE
 70
     2
  0
DIMSTYLE
  2
STANDARD
 70
     0
  3

  4

  5

  6

  7

 40
1.0
 41
0.18
 42
0.0625
 43
0.38
 44
0.18
 45
0.0
 46
0.0
 47
0.0
 48
0.0
140
0.18
141
0.09
142
0.0
143
25.399999999999999
144
1.0
145
0.0
146
1.0
147
0.09
 71
     0
 72
     0
 73
     1
 74
     1
 75
     0
 76
     0
 77
     0
 78
     0
170
     0
171
     2
172
     0
173
     0
174
     0
175
     0
176
     0
177
     0
178
     0
  0
ENDTAB
  0
ENDSEC
  0
SECTION
  2
BLOCKS
  0
BLOCK
  8
0
  2
$MODEL_SPACE
 70
     0
 10
0.0
 20
0.0
 30
0.0
  3
$MODEL_SPACE
  1

  0
ENDBLK
  5
1A8
  8
0
  0
BLOCK
 67
     1
  8
0
  2
$PAPER_SPACE
 70
     0
 10
0.0
 20
0.0
 30
0.0
  3
$PAPER_SPACE
  1

  0
ENDBLK
  5
1A4
 67
     1
  8
0
  0
ENDSEC
  0
SECTION
  2
ENTITIES
  0
LINE
  5
25
  8
HIBINO-BASE
  6
CONTINUOUS
 62
     7
 10
-34.999999999999993
 20
336.76682394743301
 30
0.0
 11
235.0
 21
336.76682394743301
 31
0.0
  0
LINE
  5
26
  8
HIBINO-BASE
  6
CONTINUOUS
 62
     7
 10
235.0
 20
-53.233176052567039
 30
0.0
 11
-34.999999999999993
 21
-53.233176052567039
 31
0.0
  0
LINE
  5
27
  8
HIBINO-BASE
  6
CONTINUOUS
 62
     7
 10
-34.999999999999993
 20
-53.233176052567039
 30
0.0
 11
-34.999999999999993
 21
336.76682394743301
 31
0.0
  0
LINE
  5
28
  8
HIBINO-BASE
  6
CONTINUOUS
 62
     7
 10
235.0
 20
336.76682394743301
 30
0.0
 11
235.0
 21
-53.233176052567039
 31
0.0
  0
LINE
  5
29
  8
HIBINO-BASE
  6
CONTINUOUS
 62
     7
 10
100.0
 20
-19.483176052567011
 30
0.0
 11
235.0
 21
-19.483176052567011
 31
0.0
  0
LINE
  5
2A
  8
HIBINO-BASE
  6
CONTINUOUS
 62
     7
 10
100.0
 20
-53.233176052567039
 30
0.0
 11
100.0
 21
-19.483176052567011
 31
0.0
  0
TEXT
  5
2B
  8
HIBINO-BASE
 62
     7
 10
101.34999999999999
 20
-23.246216052567039
 30
0.0
 40
2.4432617187500001
  1
NOTE
 41
0.7
 11
101.34999999999999
 21
-20.802954333817041
 31
0.0
 73
     3
  0
LINE
  5
2C
  8
HIBINO-BASE
  6
CONTINUOUS
 62
     7
 10
152.5
 20
-53.233176052567039
 30
0.0
 11
152.5
 21
-19.483176052567011
 31
0.0
  0
TEXT
  5
2D
  8
HIBINO-BASE
 62
     7
 10
153.84999999999991
 20
-23.246216052567039
 30
0.0
 40
2.4432617187500001
  1
TITLE
 41
0.7
 11
153.84999999999991
 21
-20.802954333817041
 31
0.0
 73
     3
  0
LINE
  5
2E
  8
HIBINO-BASE
  6
CONTINUOUS
 62
     7
 10
100.0
 20
-38.233176052567018
 30
0.0
 11
235.0
 21
-38.233176052567018
 31
0.0
  0
TEXT
  5
2F
  8
HIBINO-BASE
 62
     7
 10
172.59999999999991
 20
-41.911736052567058
 30
0.0
 40
2.4432617187500001
  1
DRAWN
 41
0.7
 11
172.59999999999991
 21
-39.468474333817049
 31
0.0
 73
     3
  0
TEXT
  5
30
  8
HIBINO-BASE
 62
     7
 10
135.09999999999991
 20
-41.911736052567058
 30
0.0
 40
2.4432617187500001
  1
DATE
 41
0.7
 11
135.09999999999991
 21
-39.468474333817049
 31
0.0
 73
     3
  0
TEXT
  5
31
  8
HIBINO-BASE
 62
     7
 10
120.09999999999999
 20
-41.911736052567058
 30
0.0
 40
2.4432617187500001
  1
SCALE
 41
0.7
 11
120.09999999999999
 21
-39.468474333817049
 31
0.0
 73
     3
  0
TEXT
  5
32
  8
HIBINO-BASE
 62
     7
 10
153.84999999999991
 20
-41.911736052567058
 30
0.0
 40
2.4432617187500001
  1
DESIGN
 41
0.7
 11
153.84999999999991
 21
-39.468474333817049
 31
0.0
 73
     3
  0
TEXT
  5
33
  8
HIBINO-BASE
 62
     7
 10
210.09999999999999
 20
-41.911736052567058
 30
0.0
 40
2.4432617187500001
  1
DRAWING NO.
 41
0.7
 11
210.09999999999999
 21
-39.468474333817049
 31
0.0
 73
     3
  0
TEXT
  5
34
  8
HIBINO-BASE
 62
     7
 10
191.34999999999999
 20
-41.911736052567058
 30
0.0
 40
2.4432617187500001
  1
CHECK
 41
0.7
 11
191.34999999999999
 21
-39.468474333817049
 31
0.0
 73
     3
  0
LINE
  5
35
  8
HIBINO-BASE
  6
CONTINUOUS
 62
     7
 10
121.5625
 20
-51.358176052567039
 30
0.0
 11
127.1875
 21
-45.733176052567018
 31
0.0
  0
TEXT
  5
36
  8
HIBINO-BASE
 62
     7
 10
120.625
 20
-47.396591052567047
 30
0.0
 40
2.4432617187500001
  1
1
 41
0.7
 11
120.625
 21
-44.953329333817038
 31
0.0
 73
     3
  0
LINE
  5
37
  8
HIBINO-BASE
  6
CONTINUOUS
 62
     7
 10
118.75
 20
-53.233176052567039
 30
0.0
 11
118.75
 21
-38.233176052567018
 31
0.0
  0
LINE
  5
38
  8
HIBINO-BASE
  6
CONTINUOUS
 62
     7
 10
133.74999999999989
 20
-53.233176052567039
 30
0.0
 11
133.74999999999989
 21
-38.233176052567018
 31
0.0
  0
LINE
  5
39
  8
HIBINO-BASE
  6
CONTINUOUS
 62
     7
 10
171.24999999999989
 20
-38.233176052567018
 30
0.0
 11
171.24999999999989
 21
-53.233176052567039
 31
0.0
  0
LINE
  5
3A
  8
HIBINO-BASE
  6
CONTINUOUS
 62
     7
 10
208.75
 20
-38.233176052567018
 30
0.0
 11
208.75
 21
-53.233176052567039
 31
0.0
  0
LINE
  5
3B
  8
HIBINO-BASE
  6
CONTINUOUS
 62
     7
 10
190.0
 20
-53.233176052567039
 30
0.0
 11
190.0
 21
-38.233176052567018
 31
0.0
  0
TEXT
  5
3C
  8
HIBINO-BASE
 62
     7
 10
135.03480999999999
 20
-48.937706052567059
 30
0.0
 40
2.4432617187500001
  1
'13.10.
 41
0.7
 11
135.03480999999999
 21
-46.494444333817057
 31
0.0
 73
     3
  0
TEXT
  5
3D
  8
HIBINO-BASE
 62
     7
 10
126.25
 20
-50.209091052567047
 30
0.0
 40
2.4432617187500001
  1
1.5
 41
0.7
 11
126.25
 21
-47.765829333817038
 31
0.0
 73
     3
  0
TEXT
  5
3E
  8
HIBINO-BASE
 62
     7
 10
173.508715016552
 20
-48.937706052567059
 30
0.0
 40
2.4432617187500001
  1
Ootake
 41
0.7
 11
173.508715016552
 21
-46.494444333817057
 31
0.0
 73
     3
  0
TEXT
  5
3F
  8
HIBINO-BASE
 62
     7
 10
105.825
 20
-50.269176052567033
 30
0.0
 40
4.8865234374999993
  1
A4
 41
0.7
 11
105.825
 21
-45.38265261506703
 31
0.0
 73
     3
  0
TEXT
  5
40
  8
HIBINO-BASE
 62
     7
 10
101.4375
 20
-42.162358552567007
 30
0.0
 40
2.4432617187500001
  1
PAPER SIZE
 41
0.7
 11
101.4375
 21
-39.719096833817012
 31
0.0
 73
     3
  0
TEXT
  5
41
  8
HIBINO-BASE
 62
     7
 10
-30.86054711466473
 20
-62.871036403831432
 30
0.0
 40
5.293733723958332
  1
Hibino-Intersound Corporation
 41
0.7
 11
-30.86054711466473
 21
-57.577302679873107
 31
0.0
 73
     3
  0
TEXT
  5
42
  8
HIBINO-BASE
 62
     7
 10
130.27091452032079
 20
-62.34440402389729
 30
0.0
 40
5.293733723958332
  1
ヒビノインターサウンド株式会社
 41
0.7
 11
130.27091452032079
 21
-57.050670299938957
 31
0.0
 73
     3
  0
LINE
  5
43
  8
SPEC
  6
CONTINUOUS
 62
     7
 10
-23.749999999999989
 20
321.7668239474329
 30
0.0
 11
197.5
 21
321.7668239474329
 31
0.0
  0
LINE
  5
44
  8
SPEC
  6
CONTINUOUS
 62
     7
 10
-23.749999999999989
 20
316.1418239474329
 30
0.0
 11
197.5
 21
316.1418239474329
 31
0.0
  0
LINE
  5
45
  8
SPEC
  6
CONTINUOUS
 62
     7
 10
-23.749999999999989
 20
310.51682394743301
 30
0.0
 11
197.5
 21
310.51682394743301
 31
0.0
  0
LINE
  5
46
  8
SPEC
  6
CONTINUOUS
 62
     7
 10
-23.749999999999989
 20
321.7668239474329
 30
0.0
 11
-23.749999999999989
 21
310.51682394743278
 31
0.0
  0
TEXT
  5
47
  8
SPEC
 62
     7
 10
-21.874999999999989
 20
323.856728947433
 30
0.0
 40
3.664892578124999
  1
仕様
 41
0.7
 11
-21.874999999999989
 21
327.52162152555798
 31
0.0
 73
     3
  0
LINE
  5
48
  8
SPEC
  6
CONTINUOUS
 62
     7
 10
25.0
 20
321.7668239474329
 30
0.0
 11
25.0
 21
310.51682394743278
 31
0.0
  0
LINE
  5
49
  8
SPEC
  6
CONTINUOUS
 62
     7
 10
197.5
 20
321.7668239474329
 30
0.0
 11
197.5
 21
310.51682394743278
 31
0.0
  0
TEXT
  5
4A
  8
SPEC
 62
     7
 10
-22.550096913281209
 20
317.53218193763718
 30
0.0
 40
2.8504720052083332
  1
寸法(W\U+00D7H\U+00D7D)
 41
0.7
 11
-22.550096913281209
 21
320.38265394284559
 31
0.0
 73
     3
  0
TEXT
  5
4B
  8
SPEC
 62
     7
 10
26.325360646267949
 20
317.39797177397332
 30
0.0
 40
2.8504720052083332
  1
58.0\U+00D725.0\U+00D725.0mm(除突起部)
 41
0.7
 11
26.325360646267949
 21
320.24844377918168
 31
0.0
 73
     3
  0
TEXT
  5
4C
  8
SPEC
 62
     7
 10
26.34850856456757
 20
312.0627088158347
 30
0.0
 40
2.8504720052083332
  1
8g
 41
0.7
 11
26.34850856456757
 21
314.91318082104311
 31
0.0
 73
     3
  0
TEXT
  5
4D
  8
SPEC
 62
     7
 10
-22.497116550069901
 20
312.04566274594413
 30
0.0
 40
2.8504720052083332
  1
質量
 41
0.7
 11
-22.497116550069901
 21
314.89613475115249
 31
0.0
 73
     3
  0
TEXT
  5
4E
  8
DIMNSIONS
 62
     7
 10
69.999999999999986
 20
-34.828941052567039
 30
0.0
 40
3.664892578124999
  1
(単位：mm)
 41
0.7
 11
69.999999999999986
 21
-31.164048474442041
 31
0.0
 73
     3
  0
LINE
  5
4F
  8
DIMNSIONS
  6
CONTINUOUS
 62
     7
 10
11.0
 20
113.93991179
 30
0.0
 11
11.0
 21
96.971943176019693
 31
0.0
  0
LINE
  5
50
  8
DIMNSIONS
  6
CONTINUOUS
 62
     7
 10
69.0
 20
113.93991179
 30
0.0
 11
69.0
 21
96.971943176019693
 31
0.0
  0
LINE
  5
51
  8
DIMNSIONS
  6
CONTINUOUS
 62
     7
 10
11.0
 20
99.971943176019693
 30
0.0
 11
69.0
 21
99.971943176019693
 31
0.0
  0
LINE
  5
52
  8
DIMNSIONS
  6
CONTINUOUS
 62
     7
 10
11.0
 20
99.971943176019693
 30
0.0
 11
14.75093383789063
 21
100.977002868745
 31
0.0
  0
LINE
  5
53
  8
DIMNSIONS
  6
CONTINUOUS
 62
     7
 10
11.0
 20
99.971943176019693
 30
0.0
 11
14.75093383789063
 21
98.966883483294325
 31
0.0
  0
LINE
  5
54
  8
DIMNSIONS
  6
CONTINUOUS
 62
     7
 10
69.0
 20
99.971943176019693
 30
0.0
 11
65.249066162109386
 21
98.966883483294325
 31
0.0
  0
LINE
  5
55
  8
DIMNSIONS
  6
CONTINUOUS
 62
     7
 10
69.0
 20
99.971943176019693
 30
0.0
 11
65.249066162109386
 21
100.977002868745
 31
0.0
  0
TEXT
  5
56
  8
DIMNSIONS
 62
     7
 10
34.708332828680668
 20
101.4627765535101
 30
0.0
 40
4.0721031072996077
  1
58.0
 41
0.7
 11
34.708332828680668
 21
105.53487966080969
 31
0.0
 73
     3
  0
LINE
  5
57
  8
DIMNSIONS
  6
CONTINUOUS
 62
     7
 10
34.958969798999988
 20
150.00000000129111
 30
0.0
 11
-3.0
 21
150.00000000129111
 31
0.0
  0
LINE
  5
58
  8
DIMNSIONS
  6
CONTINUOUS
 62
     7
 10
31.958969798999998
 20
175.0000000012912
 30
0.0
 11
-3.0
 21
175.0000000012912
 31
0.0
  0
LINE
  5
59
  8
DIMNSIONS
  6
CONTINUOUS
 62
     7
 10
0.0
 20
150.00000000129111
 30
0.0
 11
0.0
 21
175.0000000012912
 31
0.0
  0
LINE
  5
5A
  8
DIMNSIONS
  6
CONTINUOUS
 62
     7
 10
0.0
 20
150.00000000129111
 30
0.0
 11
-1.0050596927253681
 21
153.75093383918181
 31
0.0
  0
LINE
  5
5B
  8
DIMNSIONS
  6
CONTINUOUS
 62
     7
 10
0.0
 20
150.00000000129111
 30
0.0
 11
1.0050596927253681
 21
153.75093383918181
 31
0.0
  0
LINE
  5
5C
  8
DIMNSIONS
  6
CONTINUOUS
 62
     7
 10
0.0
 20
175.0000000012912
 30
0.0
 11
1.0050596927253681
 21
171.24906616340061
 31
0.0
  0
LINE
  5
5D
  8
DIMNSIONS
  6
CONTINUOUS
 62
     7
 10
0.0
 20
175.0000000012912
 30
0.0
 11
-1.0050596927253681
 21
171.24906616340061
 31
0.0
  0
TEXT
  5
5E
  8
DIMNSIONS
 62
     7
 10
-1.4908333885297249
 20
157.20833282997191
 30
0.0
 40
4.0721031679786801
  1
25.0
 50
90.0
 41
0.7
 11
-5.5629365565084052
 21
157.20833282997191
 31
0.0
 73
     3
  0
LINE
  5
5F
  8
DIMNSIONS
  6
CONTINUOUS
 62
     7
 10
35.325962857579462
 20
109.999999996498
 30
0.0
 11
-3.0
 21
109.999999996498
 31
0.0
  0
LINE
  5
60
  8
DIMNSIONS
  6
CONTINUOUS
 62
     7
 10
11.0
 20
134.99784028914399
 30
0.0
 11
-3.0
 21
134.99784028914399
 31
0.0
  0
LINE
  5
61
  8
DIMNSIONS
  6
CONTINUOUS
 62
     7
 10
0.0
 20
109.999999996498
 30
0.0
 11
0.0
 21
134.99784028914399
 31
0.0
  0
LINE
  5
62
  8
DIMNSIONS
  6
CONTINUOUS
 62
     7
 10
0.0
 20
109.999999996498
 30
0.0
 11
-1.0050596927253681
 21
113.7509338343886
 31
0.0
  0
LINE
  5
63
  8
DIMNSIONS
  6
CONTINUOUS
 62
     7
 10
0.0
 20
109.999999996498
 30
0.0
 11
1.0050596927253681
 21
113.7509338343886
 31
0.0
  0
LINE
  5
64
  8
DIMNSIONS
  6
CONTINUOUS
 62
     7
 10
0.0
 20
134.99784028914399
 30
0.0
 11
1.0050596927253681
 21
131.24690645125341
 31
0.0
  0
LINE
  5
65
  8
DIMNSIONS
  6
CONTINUOUS
 62
     7
 10
0.0
 20
134.99784028914399
 30
0.0
 11
-1.0050596927253681
 21
131.24690645125341
 31
0.0
  0
TEXT
  5
66
  8
DIMNSIONS
 62
     7
 10
-1.4908333885297249
 20
117.2072529715017
 30
0.0
 40
4.0721031679786801
  1
25.0
 50
90.0
 41
0.7
 11
-5.5629365565084052
 21
117.2072529715017
 31
0.0
 73
     3
  0
TEXT
  5
67
  8
DATA
 62
     7
 10
174.74138614311261
 20
-36.910947167063483
 30
0.0
 40
3.664892578124999
  1
STC4099
 41
0.7
 11
174.74138614311261
 21
-33.246054588938478
 31
0.0
 73
     3
  0
TEXT
  5
68
  8
DATA
 62
     7
 10
174.78448845259379
 20
-25.53253412412333
 30
0.0
 40
3.664892578124999
  1
DPA
 41
0.7
 11
174.78448845259379
 21
-21.867641545998332
 31
0.0
 73
     3
  0
TEXT
  5
69
  8
DATA
 62
     7
 10
172.2322243351482
 20
-30.577990460969868
 30
0.0
 40
2.4432655664062488
  1
サックス/トランペット用クリップ
 41
0.7
 11
172.2322243351482
 21
-28.134724894563622
 31
0.0
 73
     3
  0
TEXT
  5
6A
  8
DATA
 62
     7
 10
-31.14481605205016
 20
-43.293759776082297
 30
0.0
 40
2.8504720052083332
  1
※仕様及び外観は予告なく変更されることがあります。
 41
0.7
 11
-31.14481605205016
 21
-40.443287770873972
 31
0.0
 73
     3
  0
TEXT
  5
6B
  8
DATA
 62
     7
 10
-31.14481605205016
 20
-46.997926442748962
 30
0.0
 40
2.8504720052083332
  1
　また、同一商品でも若干の個体差があることがあります。ご了承ください。
 41
0.7
 11
-31.14481605205016
 21
-44.147454437540631
 31
0.0
 73
     3
  0
ARC
  5
6C
  8
DATA
  6
CONTINUOUS
 62
     7
 10
17.498229986999998
 20
117.4399117899999
 30
0.0
 40
6.5000000000001084
 50
103.1972521346967
 51
0.7993070192596293
  0
ARC
  5
6D
  8
DATA
  6
CONTINUOUS
 62
     7
 10
17.498229986999998
 20
117.4399117899999
 30
0.0
 40
6.500000000000111
 50
23.375958599860009
 51
76.534202439214752
  0
LINE
  5
6E
  8
DATA
  6
CONTINUOUS
 62
     7
 10
16.039890182326939
 20
134.84258637770611
 30
0.0
 11
19.011851646961059
 21
123.761220947959
 31
0.0
  0
LINE
  5
6F
  8
DATA
  6
CONTINUOUS
 62
     7
 10
13.183714587848449
 20
134.32229541611929
 30
0.0
 11
16.01425283202563
 21
123.7682458364545
 31
0.0
  0
ARC
  5
70
  8
DATA
  6
CONTINUOUS
 62
     7
 10
13.575161747849601
 20
132.60822493795541
 30
0.0
 40
0.5773502691896248
 50
98.456239199150062
 51
291.56998831092028
  0
ARC
  5
71
  8
DATA
  6
CONTINUOUS
 62
     7
 10
14.091145309371329
 20
130.66835353768221
 30
0.0
 40
0.5773502691896298
 50
98.043183728670286
 51
291.9830437814029
  0
ARC
  5
72
  8
DATA
  6
CONTINUOUS
 62
     7
 10
14.63779927201811
 20
128.73389015663659
 30
0.0
 40
0.5773502691896145
 50
100.7250169855615
 51
289.30121052450693
  0
ARC
  5
73
  8
DATA
  6
CONTINUOUS
 62
     7
 10
15.14837481431233
 20
126.82468915748851
 30
0.0
 40
0.5773502691896191
 50
100.584503989155
 51
289.44172352091562
  0
ARC
  5
74
  8
DATA
  6
CONTINUOUS
 62
     7
 10
15.789955062079949
 20
134.67665736175681
 30
0.0
 40
0.3000000044446206
 50
33.579720813896067
 51
83.959177234428054
  0
ARC
  5
75
  8
DATA
  6
CONTINUOUS
 62
     7
 10
15.34398600151993
 20
130.4624307852205
 30
0.0
 40
4.5377581430553366
 50
83.959177229842382
 51
115.496480123201
  0
ARC
  5
76
  8
DATA
  6
CONTINUOUS
 62
     7
 10
37.09358407079641
 20
184.97902358101521
 30
0.0
 40
66.35362778430877
 50
258.1382565367901
 51
270.16387003653813
  0
ARC
  5
77
  8
DATA
  6
CONTINUOUS
 62
     7
 10
37.09358407079641
 20
182.57902358101521
 30
0.0
 40
66.35362778430877
 50
258.61699588543462
 51
270.16387003653813
  0
ARC
  5
78
  8
DATA
  6
CONTINUOUS
 62
     7
 10
62.501770012999998
 20
117.4399117899999
 30
0.0
 40
6.5000000000001004
 50
103.4657975607853
 51
154.283181161389
  0
ARC
  5
79
  8
DATA
  6
CONTINUOUS
 62
     7
 10
62.501770012999998
 20
117.4399117899999
 30
0.0
 40
6.5000000000000879
 50
177.53527620436481
 51
76.802747865303388
  0
LINE
  5
7A
  8
DATA
  6
CONTINUOUS
 62
     7
 10
63.960109817673043
 20
134.84258637770611
 30
0.0
 11
60.988148353038937
 21
123.761220947959
 31
0.0
  0
LINE
  5
7B
  8
DATA
  6
CONTINUOUS
 62
     7
 10
66.769940890979839
 20
134.1494935205088
 30
0.0
 11
63.985747167974367
 21
123.7682458364545
 31
0.0
  0
ARC
  5
7C
  8
DATA
  6
CONTINUOUS
 62
     7
 10
66.424838252150408
 20
132.60822493795541
 30
0.0
 40
0.5773502691896084
 50
248.43001168907969
 51
81.543760800849995
  0
ARC
  5
7D
  8
DATA
  6
CONTINUOUS
 62
     7
 10
65.908854690628672
 20
130.66835353768221
 30
0.0
 40
0.5773502691896165
 50
248.01695621859699
 51
81.956816271329757
  0
ARC
  5
7E
  8
DATA
  6
CONTINUOUS
 62
     7
 10
65.362200727981886
 20
128.73389015663659
 30
0.0
 40
0.5773502691896207
 50
250.69878947549319
 51
79.274983014438462
  0
ARC
  5
7F
  8
DATA
  6
CONTINUOUS
 62
     7
 10
64.851625185687681
 20
126.82468915748851
 30
0.0
 40
0.5773502691896192
 50
250.55827647908441
 51
79.41549601084499
  0
ARC
  5
80
  8
DATA
  6
CONTINUOUS
 62
     7
 10
66.480180922059205
 20
134.28748099582469
 30
0.0
 40
0.3000000000363902
 50
4.8660446512146116
 51
64.503519869964521
  0
ARC
  5
81
  8
DATA
  6
CONTINUOUS
 62
     7
 10
64.210044937920046
 20
134.67665736175681
 30
0.0
 40
0.3000000044446388
 50
96.040822765571633
 51
146.4202791861041
  0
ARC
  5
82
  8
DATA
  6
CONTINUOUS
 62
     7
 10
64.656013998480063
 20
130.4624307852205
 30
0.0
 40
4.5377581430553349
 50
64.503519876798961
 51
96.040822770157646
  0
ARC
  5
83
  8
DATA
  6
CONTINUOUS
 62
     7
 10
42.006415929203577
 20
184.97902358101521
 30
0.0
 40
66.353627784308742
 50
269.9224792920113
 51
282.7456669903209
  0
ARC
  5
84
  8
DATA
  6
CONTINUOUS
 62
     7
 10
42.006415929203577
 20
182.57902358101521
 30
0.0
 40
66.353627784308742
 50
269.9224792920113
 51
282.18162539720367
  0
LINE
  5
85
  8
DATA
  6
CONTINUOUS
 62
     7
 10
37.0
 20
118.62569638690699
 30
0.0
 11
42.275609855044742
 21
118.6254565297165
 31
0.0
  0
LINE
  5
86
  8
DATA
  6
CONTINUOUS
 62
     7
 10
36.89223709955241
 20
116.2257012863797
 30
0.0
 11
42.275609855044742
 21
116.2254565297165
 31
0.0
  0
ARC
  5
87
  8
DATA
  6
CONTINUOUS
 62
     7
 10
39.998500000286782
 20
122.1929634358295
 30
0.0
 40
3.674999999999716
 50
340.45621810381169
 51
78.963834260344143
  0
ARC
  5
88
  8
DATA
  6
CONTINUOUS
 62
     7
 10
39.998500000286782
 20
122.1929634358295
 30
0.0
 40
3.6749999999997072
 50
101.03616573962729
 51
199.5437818961602
  0
ARC
  5
89
  8
DATA
  6
CONTINUOUS
 62
     7
 10
39.998500000286789
 20
122.6895870981634
 30
0.0
 40
1.890000000000216
 50
111.85273292033099
 51
68.147267079611424
  0
LINE
  5
8A
  8
DATA
  6
CONTINUOUS
 62
     7
 10
39.295000000287672
 20
124.4437785785903
 30
0.0
 11
39.295000000287672
 21
125.799999996498
 31
0.0
  0
LINE
  5
8B
  8
DATA
  6
CONTINUOUS
 62
     7
 10
40.702000000287683
 20
125.7999999964976
 30
0.0
 11
40.702000000287683
 21
124.4437785785895
 31
0.0
  0
ARC
  5
8C
  8
DATA
  6
CONTINUOUS
 62
     7
 10
57.547756119734899
 20
127.784728047944
 30
0.0
 40
22.09195156362685
 50
197.9846290085473
 51
202.890022212036
  0
ARC
  5
8D
  8
DATA
  6
CONTINUOUS
 62
     7
 10
22.449243880836761
 20
127.784728047944
 30
0.0
 40
22.09195156362685
 50
335.50584643576371
 51
335.50660176030249
  0
ARC
  5
8E
  8
DATA
  6
CONTINUOUS
 62
     7
 10
22.449243880836761
 20
127.784728047944
 30
0.0
 40
22.09195156362685
 50
337.109977787964
 51
342.01537099145258
  0
LINE
  5
8F
  8
DATA
  6
CONTINUOUS
 62
     7
 10
37.195476026491278
 20
118.6258938046355
 30
0.0
 11
37.195476026491278
 21
119.1917647118304
 31
0.0
  0
LINE
  5
90
  8
DATA
  6
CONTINUOUS
 62
     7
 10
42.801523974080403
 20
118.626829166896
 30
0.0
 11
42.801523974080403
 21
119.1917647118304
 31
0.0
  0
LINE
  5
91
  8
DATA
  6
CONTINUOUS
 62
     7
 10
38.325962857579462
 20
109.999999996498
 30
0.0
 11
41.591976740420542
 21
109.999999996498
 31
0.0
  0
LINE
  5
92
  8
DATA
  6
CONTINUOUS
 62
     7
 10
44.958969798999988
 20
116.2761032697174
 30
0.0
 11
44.958969798999988
 21
113.3669930550774
 31
0.0
  0
LINE
  5
93
  8
DATA
  6
CONTINUOUS
 62
     7
 10
34.958969799000002
 20
113.3669930550774
 30
0.0
 11
34.958969799000002
 21
116.2722670729454
 31
0.0
  0
LINE
  5
94
  8
DATA
  6
CONTINUOUS
 62
     7
 10
35.54475623662691
 20
111.95277949270429
 30
0.0
 11
36.911749295206342
 21
110.5857864341249
 31
0.0
  0
ARC
  5
95
  8
DATA
  6
CONTINUOUS
 62
     7
 10
36.958969799000002
 20
113.3669930550774
 30
0.0
 40
2.0
 50
180.00000000000011
 51
225.00000000000011
  0
ARC
  5
96
  8
DATA
  6
CONTINUOUS
 62
     7
 10
38.325962857579462
 20
111.999999996498
 30
0.0
 40
2.000000000000008
 50
224.9999999999998
 51
270.0
  0
LINE
  5
97
  8
DATA
  6
CONTINUOUS
 62
     7
 10
44.373183361373087
 20
111.95277949270429
 30
0.0
 11
43.006190302793648
 21
110.5857864341249
 31
0.0
  0
ARC
  5
98
  8
DATA
  6
CONTINUOUS
 62
     7
 10
42.958969798999988
 20
113.3669930550774
 30
0.0
 40
2.0
 50
314.99999999999989
 51
359.99999999999977
  0
ARC
  5
99
  8
DATA
  6
CONTINUOUS
 62
     7
 10
41.591976740420542
 20
111.999999996498
 30
0.0
 40
2.0
 50
270.0
 51
315.00000000000028
  0
ARC
  5
9A
  8
DATA
  6
CONTINUOUS
 62
     7
 10
38.694858427821913
 20
116.9835794414609
 30
0.0
 40
5.1996693103634248
 50
224.0703926015259
 51
270.92960739847467
  0
LINE
  5
9B
  8
DATA
  6
CONTINUOUS
 62
     7
 10
38.610499003182923
 20
111.7845944997045
 30
0.0
 11
41.307440594817088
 21
111.7845944997045
 31
0.0
  0
ARC
  5
9C
  8
DATA
  6
CONTINUOUS
 62
     7
 10
41.223081170178091
 20
116.9835794414609
 30
0.0
 40
5.1996693103634284
 50
269.0703926015255
 51
315.92960739847399
  0
ARC
  5
9D
  8
DATA
  6
CONTINUOUS
 62
     7
 10
13.70953704889622
 20
134.06984806594119
 30
0.0
 40
0.5832828860461535
 50
123.1378519107466
 51
154.35433886230439
  0
ARC
  5
9E
  8
DATA
  6
CONTINUOUS
 62
     7
 10
66.361165701908007
 20
134.2543751931259
 30
0.0
 40
0.4220157822305631
 50
345.6097254778818
 51
7.9753897197628012
  0
ARC
  5
9F
  8
DATA
  6
CONTINUOUS
 62
     7
 10
17.498229986999998
 20
158.65000000129109
 30
0.0
 40
6.4999999999999938
 50
26.005762375030759
 51
333.99423762496963
  0
LINE
  5
A0
  8
DATA
  6
CONTINUOUS
 62
     7
 10
23.34010468610132
 20
161.5000000012912
 30
0.0
 11
34.958969798999988
 21
161.5000000012912
 31
0.0
  0
LINE
  5
A1
  8
DATA
  6
CONTINUOUS
 62
     7
 10
44.958969798999988
 20
161.5000000012912
 30
0.0
 11
56.65989531389868
 21
161.5000000012912
 31
0.0
  0
LINE
  5
A2
  8
DATA
  6
CONTINUOUS
 62
     7
 10
23.34010468610132
 20
155.80000000129121
 30
0.0
 11
34.958969798999988
 21
155.80000000129121
 31
0.0
  0
LINE
  5
A3
  8
DATA
  6
CONTINUOUS
 62
     7
 10
44.599999999999987
 20
155.80000000129121
 30
0.0
 11
56.65989531389868
 21
155.80000000129121
 31
0.0
  0
LINE
  5
A4
  8
DATA
  6
CONTINUOUS
 62
     7
 10
34.958969799000002
 20
175.0000000012912
 30
0.0
 11
44.958969798999988
 21
175.0000000012912
 31
0.0
  0
LINE
  5
A5
  8
DATA
  6
CONTINUOUS
 62
     7
 10
37.958969799000002
 20
150.00000000129111
 30
0.0
 11
41.958969799000002
 21
150.00000000129111
 31
0.0
  0
LINE
  5
A6
  8
DATA
  6
CONTINUOUS
 62
     7
 10
34.958969798999988
 20
153.00000000129111
 30
0.0
 11
34.958969798999988
 21
175.0000000012912
 31
0.0
  0
ARC
  5
A7
  8
DATA
  6
CONTINUOUS
 62
     7
 10
37.958969799000002
 20
153.00000000129111
 30
0.0
 40
3.0000000000000142
 50
180.00000000000011
 51
269.9999999999996
  0
LINE
  5
A8
  8
DATA
  6
CONTINUOUS
 62
     7
 10
41.958969798999988
 20
150.00000000129111
 30
0.0
 11
37.958969799000002
 21
150.00000000129111
 31
0.0
  0
LINE
  5
A9
  8
DATA
  6
CONTINUOUS
 62
     7
 10
44.958969798999988
 20
175.0000000012912
 30
0.0
 11
44.958969798999988
 21
153.00000000129111
 31
0.0
  0
LINE
  5
AA
  8
DATA
  6
CONTINUOUS
 62
     7
 10
34.958969798999988
 20
175.0000000012912
 30
0.0
 11
44.958969798999988
 21
175.0000000012912
 31
0.0
  0
ARC
  5
AB
  8
DATA
  6
CONTINUOUS
 62
     7
 10
41.958969798999988
 20
153.00000000129111
 30
0.0
 40
3.0000000000000142
 50
270.00000000000028
 51
359.99999999999977
  0
LINE
  5
AC
  8
DATA
  6
CONTINUOUS
 62
     7
 10
36.323514944904318
 20
155.80000000129121
 30
0.0
 11
36.323514944904318
 21
175.0000000012912
 31
0.0
  0
LINE
  5
AD
  8
DATA
  6
CONTINUOUS
 62
     7
 10
43.673485055669254
 20
155.80000000129121
 30
0.0
 11
43.673485055669254
 21
175.0000000012912
 31
0.0
  0
LINE
  5
AE
  8
DATA
  6
CONTINUOUS
 62
     7
 10
39.295000000287693
 20
157.34312111669689
 30
0.0
 11
39.295000000287693
 21
173.7882635086354
 31
0.0
  0
LINE
  5
AF
  8
DATA
  6
CONTINUOUS
 62
     7
 10
40.702000000287683
 20
157.34312111669689
 30
0.0
 11
40.702000000287683
 21
173.7891861371499
 31
0.0
  0
LINE
  5
B0
  8
DATA
  6
CONTINUOUS
 62
     7
 10
34.958969798999988
 20
155.80000000129121
 30
0.0
 11
44.958969798999988
 21
155.80000000129121
 31
0.0
  0
LINE
  5
B1
  8
DATA
  6
CONTINUOUS
 62
     7
 10
38.918969799000003
 20
157.34312111669689
 30
0.0
 11
39.295000000287693
 21
157.34312111669689
 31
0.0
  0
ARC
  5
B2
  8
DATA
  6
CONTINUOUS
 62
     7
 10
39.562960021497609
 20
153.30568567173961
 30
0.0
 40
4.0884726217587639
 50
99.062608599270405
 51
142.40437707975931
  0
ARC
  5
B3
  8
DATA
  6
CONTINUOUS
 62
     7
 10
40.354979576502359
 20
153.30568567173961
 30
0.0
 40
4.0884726217587692
 50
37.595622920240672
 51
80.937391400729624
  0
LINE
  5
B4
  8
DATA
  6
CONTINUOUS
 62
     7
 10
40.702000000287683
 20
157.34312111669689
 30
0.0
 11
40.998969798999958
 21
157.34312111669689
 31
0.0
  0
ARC
  5
B5
  8
DATA
  6
CONTINUOUS
 62
     7
 10
40.02601247869169
 20
156.8506863463993
 30
0.0
 40
0.8814029989627024
 50
146.03445689726499
 51
265.63766367755522
  0
ARC
  5
B6
  8
DATA
  6
CONTINUOUS
 62
     7
 10
39.96260062763163
 20
156.8568169957758
 30
0.0
 40
0.8849876441561712
 50
269.76493260475962
 51
33.332981915290702
  0
ARC
  5
B7
  8
DATA
  6
CONTINUOUS
 62
     7
 10
39.294472438446
 20
178.03625535345469
 30
0.0
 40
4.2479918775784622
 50
225.6227753978628
 51
270.00711561319088
  0
ARC
  5
B8
  8
DATA
  6
CONTINUOUS
 62
     7
 10
39.838889573760433
 20
174.2083980198685
 30
0.0
 40
0.6872618683307284
 50
93.903909076485064
 51
217.6847545623699
  0
LINE
  5
B9
  8
DATA
  6
CONTINUOUS
 62
     7
 10
39.792098477410413
 20
174.89406519055979
 30
0.0
 11
40.194361859425698
 21
174.89406519055979
 31
0.0
  0
ARC
  5
BA
  8
DATA
  6
CONTINUOUS
 62
     7
 10
40.484270834842967
 20
178.57488695879411
 30
0.0
 40
4.7907101879830813
 50
272.60488744902892
 51
311.73666613979361
  0
ARC
  5
BB
  8
DATA
  6
CONTINUOUS
 62
     7
 10
40.135606949858598
 20
174.19801313577011
 30
0.0
 40
0.6985274528429116
 50
324.17794999687129
 51
85.175006320078865
  0
LINE
  5
BC
  8
DATA
  6
CONTINUOUS
 62
     7
 10
23.34010468610132
 20
161.5000000012912
 30
0.0
 11
21.27343527083141
 21
161.5000000012912
 31
0.0
  0
LINE
  5
BD
  8
DATA
  6
CONTINUOUS
 62
     7
 10
23.34010468610132
 20
155.80000000129121
 30
0.0
 11
21.273435270831449
 21
155.80000000129121
 31
0.0
  0
ARC
  5
BE
  8
DATA
  6
CONTINUOUS
 62
     7
 10
20.404979603988881
 20
158.02500000193669
 30
0.0
 40
7.2092588529089872
 50
178.62364630304361
 51
205.6061612443892
  0
ARC
  5
BF
  8
DATA
  6
CONTINUOUS
 62
     7
 10
16.206894012261461
 20
156.26409880142359
 30
0.0
 40
7.2859111784021664
 50
45.941789867013
 51
95.422899630618986
  0
ARC
  5
C0
  8
DATA
  6
CONTINUOUS
 62
     7
 10
15.707342601663621
 20
161.5263516815242
 30
0.0
 40
2.0000000000000031
 50
95.422899630618744
 51
154.39383875560981
  0
ARC
  5
C1
  8
DATA
  6
CONTINUOUS
 62
     7
 10
20.404979603988881
 20
159.2750000006456
 30
0.0
 40
7.2092588529089827
 50
154.3938387556102
 51
181.3763536969563
  0
ARC
  5
C2
  8
DATA
  6
CONTINUOUS
 62
     7
 10
16.206894012261461
 20
161.03590120115859
 30
0.0
 40
7.2859111784021691
 50
264.57710036938101
 51
314.05821013298703
  0
ARC
  5
C3
  8
DATA
  6
CONTINUOUS
 62
     7
 10
15.707342601663621
 20
155.77364832105809
 30
0.0
 40
1.999999999999988
 50
205.60616124439011
 51
264.5771003693813
  0
LINE
  5
C4
  8
DATA
  6
CONTINUOUS
 62
     7
 10
13.19780070915958
 20
159.10183653402001
 30
0.0
 11
13.19780070915958
 21
158.19816346856231
 31
0.0
  0
ARC
  5
C5
  8
DATA
  6
CONTINUOUS
 62
     7
 10
19.956815511769818
 20
158.02500000193669
 30
0.0
 40
7.2092588529089872
 50
178.62364630304361
 51
203.50272770954439
  0
ARC
  5
C6
  8
DATA
  6
CONTINUOUS
 62
     7
 10
19.956815511769818
 20
159.2750000006456
 30
0.0
 40
7.2092588529089898
 50
156.4972722904551
 51
181.3763536969563
  0
LINE
  5
C7
  8
DATA
  6
CONTINUOUS
 62
     7
 10
12.749636616940521
 20
159.10183653402001
 30
0.0
 11
12.749636616940521
 21
158.19816346856231
 31
0.0
  0
LINE
  5
C8
  8
DATA
  6
CONTINUOUS
 62
     7
 10
13.345628915966129
 20
162.1500000012912
 30
0.0
 11
13.79379300818519
 21
162.1500000012912
 31
0.0
  0
LINE
  5
C9
  8
DATA
  6
CONTINUOUS
 62
     7
 10
13.79379300818518
 20
155.1500000012912
 30
0.0
 11
13.34562891596611
 21
155.1500000012912
 31
0.0
  0
ARC
  5
CA
  8
DATA
  6
CONTINUOUS
 62
     7
 10
61.701770013000001
 20
158.65000000129109
 30
0.0
 40
6.4999999999999929
 50
206.00576237503051
 51
153.9942376249692
  0
LINE
  5
CB
  8
DATA
  6
CONTINUOUS
 62
     7
 10
55.859895313898669
 20
161.5000000012912
 30
0.0
 11
57.926564729168568
 21
161.5000000012912
 31
0.0
  0
LINE
  5
CC
  8
DATA
  6
CONTINUOUS
 62
     7
 10
55.859895313898669
 20
155.80000000129121
 30
0.0
 11
57.92656472916854
 21
155.80000000129121
 31
0.0
  0
ARC
  5
CD
  8
DATA
  6
CONTINUOUS
 62
     7
 10
58.795020396011111
 20
158.02500000193669
 30
0.0
 40
7.2092588529089818
 50
334.39383875561077
 51
1.376353696956357
  0
ARC
  5
CE
  8
DATA
  6
CONTINUOUS
 62
     7
 10
62.993105987738538
 20
156.26409880142359
 30
0.0
 40
7.2859111784021691
 50
84.577100369381014
 51
134.058210132987
  0
ARC
  5
CF
  8
DATA
  6
CONTINUOUS
 62
     7
 10
63.492657398336362
 20
161.5263516815242
 30
0.0
 40
1.9999999999999889
 50
25.606161244390151
 51
84.57710036938127
  0
ARC
  5
D0
  8
DATA
  6
CONTINUOUS
 62
     7
 10
58.795020396011111
 20
159.2750000006456
 30
0.0
 40
7.2092588529089872
 50
358.6236463030437
 51
25.606161244389799
  0
ARC
  5
D1
  8
DATA
  6
CONTINUOUS
 62
     7
 10
62.993105987738538
 20
161.03590120115859
 30
0.0
 40
7.2859111784021691
 50
225.941789867013
 51
275.42289963061899
  0
ARC
  5
D2
  8
DATA
  6
CONTINUOUS
 62
     7
 10
63.492657398336362
 20
155.77364832105809
 30
0.0
 40
2.0
 50
275.42289963061882
 51
334.39383875561009
  0
LINE
  5
D3
  8
DATA
  6
CONTINUOUS
 62
     7
 10
66.002199290840423
 20
159.10183653402001
 30
0.0
 11
66.002199290840423
 21
158.19816346856231
 31
0.0
  0
ARC
  5
D4
  8
DATA
  6
CONTINUOUS
 62
     7
 10
59.243184488230177
 20
158.02500000193669
 30
0.0
 40
7.2092588529089818
 50
336.49727229045561
 51
1.376353696956357
  0
ARC
  5
D5
  8
DATA
  6
CONTINUOUS
 62
     7
 10
59.243184488230177
 20
159.2750000006456
 30
0.0
 40
7.2092588529089872
 50
358.6236463030437
 51
23.50272770954485
  0
LINE
  5
D6
  8
DATA
  6
CONTINUOUS
 62
     7
 10
66.450363383059454
 20
159.10183653402001
 30
0.0
 11
66.450363383059454
 21
158.19816346856231
 31
0.0
  0
LINE
  5
D7
  8
DATA
  6
CONTINUOUS
 62
     7
 10
65.854371084033858
 20
162.1500000012912
 30
0.0
 11
65.406206991814798
 21
162.1500000012912
 31
0.0
  0
LINE
  5
D8
  8
DATA
  6
CONTINUOUS
 62
     7
 10
65.406206991814827
 20
155.1500000012912
 30
0.0
 11
65.854371084033886
 21
155.1500000012912
 31
0.0
  0
LINE
  5
D9
  8
DATA
  6
CONTINUOUS
 62
     7
 10
23.34010468610132
 20
63.500000000028791
 30
0.0
 11
34.958969799000002
 21
63.500000000028791
 31
0.0
  0
LINE
  5
DA
  8
DATA
  6
CONTINUOUS
 62
     7
 10
44.958969798999988
 20
63.500000000028791
 30
0.0
 11
56.65989531389868
 21
63.500000000028791
 31
0.0
  0
LINE
  5
DB
  8
DATA
  6
CONTINUOUS
 62
     7
 10
23.34010468610132
 20
69.20000000002878
 30
0.0
 11
34.958969799000002
 21
69.20000000002878
 31
0.0
  0
LINE
  5
DC
  8
DATA
  6
CONTINUOUS
 62
     7
 10
44.958969798999988
 20
69.20000000002878
 30
0.0
 11
56.65989531389868
 21
69.20000000002878
 31
0.0
  0
LINE
  5
DD
  8
DATA
  6
CONTINUOUS
 62
     7
 10
37.958969799000002
 20
75.000000000028763
 30
0.0
 11
41.958969799000002
 21
75.000000000028763
 31
0.0
  0
LINE
  5
DE
  8
DATA
  6
CONTINUOUS
 62
     7
 10
34.958969798999988
 20
72.000000000028763
 30
0.0
 11
34.958969798999988
 21
50.000000000028749
 31
0.0
  0
ARC
  5
DF
  8
DATA
  6
CONTINUOUS
 62
     7
 10
37.958969799000002
 20
72.000000000028734
 30
0.0
 40
3.0000000000000142
 50
90.000000000000256
 51
179.99999999999969
  0
LINE
  5
E0
  8
DATA
  6
CONTINUOUS
 62
     7
 10
41.958969798999988
 20
75.000000000028763
 30
0.0
 11
37.958969799000002
 21
75.000000000028763
 31
0.0
  0
LINE
  5
E1
  8
DATA
  6
CONTINUOUS
 62
     7
 10
44.958969798999988
 20
50.000000000028749
 30
0.0
 11
44.958969798999988
 21
72.000000000028763
 31
0.0
  0
LINE
  5
E2
  8
DATA
  6
CONTINUOUS
 62
     7
 10
34.958969798999988
 20
50.000000000028749
 30
0.0
 11
44.958969798999988
 21
50.000000000028749
 31
0.0
  0
ARC
  5
E3
  8
DATA
  6
CONTINUOUS
 62
     7
 10
41.958969798999988
 20
72.000000000028734
 30
0.0
 40
3.0000000000000142
 50
0.0000000000002274
 51
89.999999999999687
  0
CIRCLE
  5
E4
  8
DATA
  6
CONTINUOUS
 62
     7
 10
17.498229986999998
 20
66.350000000028786
 30
0.0
 40
6.5
  0
CIRCLE
  5
E5
  8
DATA
  6
CONTINUOUS
 62
     7
 10
62.500000002999997
 20
66.350000000028786
 30
0.0
 40
6.5
  0
CIRCLE
  5
E6
  8
DATA
  6
CONTINUOUS
 62
     7
 10
98.650000031500014
 20
117.4399117899999
 30
0.0
 40
6.5
  0
ARC
  5
E7
  8
DATA
  6
CONTINUOUS
 62
     7
 10
98.650000031500014
 20
130.08713216714881
 30
0.0
 40
4.9000000000000359
 50
305.56545687606962
 51
234.4345431239301
  0
LINE
  5
E8
  8
DATA
  6
CONTINUOUS
 62
     7
 10
101.50000003149999
 20
126.1012194736744
 30
0.0
 11
101.50000003149999
 21
123.28178648910119
 31
0.0
  0
LINE
  5
E9
  8
DATA
  6
CONTINUOUS
 62
     7
 10
95.800000031499991
 20
123.28178648910119
 30
0.0
 11
95.800000031499991
 21
126.1012194736744
 31
0.0
  0
CIRCLE
  5
EA
  8
DATA
  6
CONTINUOUS
 62
     7
 10
98.650000031500014
 20
130.08713216714881
 30
0.0
 40
3.350000000000001
  0
LINE
  5
EB
  8
DATA
  6
CONTINUOUS
 62
     7
 10
97.361199342263419
 20
133.1792985248054
 30
0.0
 11
99.938800720736594
 21
133.1792985248054
 31
0.0
  0
LINE
  5
EC
  8
DATA
  6
CONTINUOUS
 62
     7
 10
95.950824173431116
 20
132.07130697981481
 30
0.0
 11
101.3491758895689
 21
132.07130697981481
 31
0.0
  0
LINE
  5
ED
  8
DATA
  6
CONTINUOUS
 62
     7
 10
95.504632069937557
 20
131.24002435047581
 30
0.0
 11
101.7953679930624
 21
131.24002435047581
 31
0.0
  0
LINE
  5
EE
  8
DATA
  6
CONTINUOUS
 62
     7
 10
95.300313777074564
 20
130.13297970703201
 30
0.0
 11
101.99968628592541
 21
130.13297970703201
 31
0.0
  0
LINE
  5
EF
  8
DATA
  6
CONTINUOUS
 62
     7
 10
95.393508055704984
 20
129.30115506087739
 30
0.0
 11
101.906492007295
 21
129.30115506087739
 31
0.0
  0
LINE
  5
F0
  8
DATA
  6
CONTINUOUS
 62
     7
 10
95.889645336839038
 20
128.18899045493049
 30
0.0
 11
101.410354726161
 21
128.18899045493049
 31
0.0
  0
LINE
  5
F1
  8
DATA
  6
CONTINUOUS
 62
     7
 10
96.660043741237516
 20
127.39221584881081
 30
0.0
 11
100.6399563217625
 21
127.39221584881081
 31
0.0
  0
LINE
  5
F2
  8
DATA
  6
CONTINUOUS
 62
     7
 10
101.50000003149999
 20
125.7999999964976
 30
0.0
 11
111.99268292249801
 21
125.7999999964976
 31
0.0
  0
LINE
  5
F3
  8
DATA
  6
CONTINUOUS
 62
     7
 10
89.999999999968324
 20
109.999999996498
 30
0.0
 11
90.650121311689816
 21
109.999999996498
 31
0.0
  0
LINE
  5
F4
  8
DATA
  6
CONTINUOUS
 62
     7
 10
112.9111035472355
 20
113.999999996498
 30
0.0
 11
112.9111035472355
 21
114.2761032697174
 31
0.0
  0
LINE
  5
F5
  8
DATA
  6
CONTINUOUS
 62
     7
 10
92.649999959860295
 20
111.999999996498
 30
0.0
 11
95.092281706657644
 21
111.999999996498
 31
0.0
  0
LINE
  5
F6
  8
DATA
  6
CONTINUOUS
 62
     7
 10
102.2077183563423
 20
111.999999996498
 30
0.0
 11
110.9111035472355
 21
111.999999996498
 31
0.0
  0
ARC
  5
F7
  8
DATA
  6
CONTINUOUS
 62
     7
 10
110.9111035472355
 20
113.999999996498
 30
0.0
 40
2.0
 50
270.0
 51
0.0
  0
ARC
  5
F8
  8
DATA
  6
CONTINUOUS
 62
     7
 10
110.9111035472355
 20
114.2761032697174
 30
0.0
 40
2.0
 50
0.0
 51
90.0
  0
ARC
  5
F9
  8
DATA
  6
CONTINUOUS
 62
     7
 10
92.794033419364993
 20
109.05353071868581
 30
0.0
 40
2.949987600405771
 50
92.798583830377709
 51
161.2863651566509
  0
LINE
  5
FA
  8
DATA
  6
CONTINUOUS
 62
     7
 10
110.9111035472355
 20
116.2761032697174
 30
0.0
 11
105.0449628717453
 21
116.2761032697174
 31
0.0
  0
LINE
  5
FB
  8
DATA
  6
CONTINUOUS
 62
     7
 10
112.9999999999684
 20
118.2761032697174
 30
0.0
 11
105.09598977778781
 21
118.2761032697174
 31
0.0
  0
ARC
  5
FC
  8
DATA
  6
CONTINUOUS
 62
     7
 10
112.9999999999684
 20
116.2761032697174
 30
0.0
 40
2.0
 50
0.0
 51
90.0
  0
LINE
  5
FD
  8
DATA
  6
CONTINUOUS
 62
     7
 10
114.9999999999684
 20
111.999999996498
 30
0.0
 11
114.9999999999684
 21
116.2761032697174
 31
0.0
  0
LINE
  5
FE
  8
DATA
  6
CONTINUOUS
 62
     7
 10
112.9069433667969
 20
114.40503509144121
 30
0.0
 11
109.6661582175971
 21
116.2761032697174
 31
0.0
  0
ARC
  5
FF
  8
DATA
  6
CONTINUOUS
 62
     7
 10
111.99268292249801
 20
124.2999999964976
 30
0.0
 40
1.5000000000000051
 50
10.464145526714081
 51
89.99999999999973
  0
LINE
  5
100
  8
DATA
  6
CONTINUOUS
 62
     7
 10
113.6977856402122
 20
110.2836933580607
 30
0.0
 11
91.347906951933794
 21
110.2836933580607
 31
0.0
  0
ARC
  5
101
  8
DATA
  6
CONTINUOUS
 62
     7
 10
91.347906951933794
 20
109.2836933580607
 30
0.0
 40
1.0
 50
90.000000000000213
 51
134.24961448980341
  0
ARC
  5
102
  8
DATA
  6
CONTINUOUS
 62
     7
 10
113.6977856402122
 20
111.2836933580612
 30
0.0
 40
1.0000000000005249
 50
270.0
 51
314.24961448977348
  0
ARC
  5
103
  8
DATA
  6
CONTINUOUS
 62
     7
 10
112.9999999999684
 20
111.999999996498
 30
0.0
 40
2.0
 50
314.24961448979451
 51
0.0
  0
ARC
  5
104
  8
DATA
  6
CONTINUOUS
 62
     7
 10
137.498229987
 20
117.4399117899999
 30
0.0
 40
6.5000000000001084
 50
103.1972521346967
 51
0.7993070192596293
  0
ARC
  5
105
  8
DATA
  6
CONTINUOUS
 62
     7
 10
137.498229987
 20
117.4399117899999
 30
0.0
 40
6.500000000000111
 50
23.375958599860009
 51
76.534202439214752
  0
LINE
  5
106
  8
DATA
  6
CONTINUOUS
 62
     7
 10
136.0398901823269
 20
134.84258637770611
 30
0.0
 11
139.01185164696111
 21
123.761220947959
 31
0.0
  0
LINE
  5
107
  8
DATA
  6
CONTINUOUS
 62
     7
 10
133.18371458784841
 20
134.32229541611929
 30
0.0
 11
136.01425283202559
 21
123.7682458364545
 31
0.0
  0
ARC
  5
108
  8
DATA
  6
CONTINUOUS
 62
     7
 10
133.57516174784959
 20
132.60822493795541
 30
0.0
 40
0.5773502691896248
 50
98.456239199150062
 51
291.56998831092028
  0
ARC
  5
109
  8
DATA
  6
CONTINUOUS
 62
     7
 10
134.09114530937131
 20
130.66835353768221
 30
0.0
 40
0.5773502691896298
 50
98.043183728670286
 51
291.9830437814029
  0
ARC
  5
10A
  8
DATA
  6
CONTINUOUS
 62
     7
 10
134.6377992720181
 20
128.73389015663659
 30
0.0
 40
0.5773502691896145
 50
100.7250169855615
 51
289.30121052450693
  0
ARC
  5
10B
  8
DATA
  6
CONTINUOUS
 62
     7
 10
135.14837481431229
 20
126.82468915748851
 30
0.0
 40
0.5773502691896191
 50
100.584503989155
 51
289.44172352091562
  0
ARC
  5
10C
  8
DATA
  6
CONTINUOUS
 62
     7
 10
135.78995506207991
 20
134.67665736175681
 30
0.0
 40
0.3000000044446206
 50
33.579720813896067
 51
83.959177234428054
  0
ARC
  5
10D
  8
DATA
  6
CONTINUOUS
 62
     7
 10
135.34398600151991
 20
130.4624307852205
 30
0.0
 40
4.5377581430553366
 50
83.959177229842382
 51
115.496480123201
  0
ARC
  5
10E
  8
DATA
  6
CONTINUOUS
 62
     7
 10
157.0935840707964
 20
184.97902358101521
 30
0.0
 40
66.35362778430877
 50
258.1382565367901
 51
270.08798285062869
  0
ARC
  5
10F
  8
DATA
  6
CONTINUOUS
 62
     7
 10
157.0935840707964
 20
182.57902358101521
 30
0.0
 40
66.35362778430877
 50
258.61699588543462
 51
268.15646109210599
  0
ARC
  5
110
  8
DATA
  6
CONTINUOUS
 62
     7
 10
182.501770013
 20
117.4399117899999
 30
0.0
 40
6.5000000000001004
 50
103.4657975607853
 51
154.283181161389
  0
ARC
  5
111
  8
DATA
  6
CONTINUOUS
 62
     7
 10
182.501770013
 20
117.4399117899999
 30
0.0
 40
6.5000000000000879
 50
177.53527620436481
 51
76.802747865303388
  0
LINE
  5
112
  8
DATA
  6
CONTINUOUS
 62
     7
 10
183.96010981767299
 20
134.84258637770611
 30
0.0
 11
180.98814835303881
 21
123.761220947959
 31
0.0
  0
LINE
  5
113
  8
DATA
  6
CONTINUOUS
 62
     7
 10
186.7699408909798
 20
134.1494935205088
 30
0.0
 11
183.9857471679743
 21
123.7682458364545
 31
0.0
  0
ARC
  5
114
  8
DATA
  6
CONTINUOUS
 62
     7
 10
186.42483825215041
 20
132.60822493795541
 30
0.0
 40
0.5773502691896084
 50
248.43001168907969
 51
81.543760800849995
  0
ARC
  5
115
  8
DATA
  6
CONTINUOUS
 62
     7
 10
185.90885469062869
 20
130.66835353768221
 30
0.0
 40
0.5773502691896165
 50
248.01695621859699
 51
81.956816271329757
  0
ARC
  5
116
  8
DATA
  6
CONTINUOUS
 62
     7
 10
185.3622007279819
 20
128.73389015663659
 30
0.0
 40
0.5773502691896207
 50
250.69878947549319
 51
79.274983014438462
  0
ARC
  5
117
  8
DATA
  6
CONTINUOUS
 62
     7
 10
184.8516251856876
 20
126.82468915748851
 30
0.0
 40
0.5773502691896192
 50
250.55827647908441
 51
79.41549601084499
  0
ARC
  5
118
  8
DATA
  6
CONTINUOUS
 62
     7
 10
186.48018092205911
 20
134.28748099582469
 30
0.0
 40
0.3000000000363902
 50
4.8660446512146116
 51
64.503519869964521
  0
ARC
  5
119
  8
DATA
  6
CONTINUOUS
 62
     7
 10
184.21004493792
 20
134.67665736175681
 30
0.0
 40
0.3000000044446388
 50
96.040822765571633
 51
146.4202791861041
  0
ARC
  5
11A
  8
DATA
  6
CONTINUOUS
 62
     7
 10
184.65601399848009
 20
130.4624307852205
 30
0.0
 40
4.5377581430553349
 50
64.503519876798961
 51
96.040822770157646
  0
ARC
  5
11B
  8
DATA
  6
CONTINUOUS
 62
     7
 10
162.00641592920351
 20
184.97902358101521
 30
0.0
 40
66.353627784308742
 50
270.6865853014516
 51
282.7456669903209
  0
ARC
  5
11C
  8
DATA
  6
CONTINUOUS
 62
     7
 10
162.00641592920351
 20
182.57902358101521
 30
0.0
 40
66.353627784308742
 50
272.55034663285818
 51
282.18162539720367
  0
LINE
  5
11D
  8
DATA
  6
CONTINUOUS
 62
     7
 10
157.0
 20
118.62569638690699
 30
0.0
 11
157.19547602649129
 21
118.6256874995306
 31
0.0
  0
ARC
  5
11E
  8
DATA
  6
CONTINUOUS
 62
     7
 10
159.99850000028681
 20
122.1929634358295
 30
0.0
 40
3.674999999999716
 50
340.45621810381169
 51
78.963834260344143
  0
ARC
  5
11F
  8
DATA
  6
CONTINUOUS
 62
     7
 10
159.99850000028681
 20
122.1929634358295
 30
0.0
 40
3.6749999999997072
 50
101.03616573962729
 51
199.5437818961602
  0
ARC
  5
120
  8
DATA
  6
CONTINUOUS
 62
     7
 10
159.99850000028681
 20
122.6895870981634
 30
0.0
 40
1.890000000000216
 50
111.85273292033099
 51
68.147267079611424
  0
LINE
  5
121
  8
DATA
  6
CONTINUOUS
 62
     7
 10
159.29500000028759
 20
124.4437785785903
 30
0.0
 11
159.29500000028759
 21
125.799999996498
 31
0.0
  0
LINE
  5
122
  8
DATA
  6
CONTINUOUS
 62
     7
 10
160.70200000028771
 20
125.7999999964976
 30
0.0
 11
160.70200000028771
 21
124.4437785785895
 31
0.0
  0
ARC
  5
123
  8
DATA
  6
CONTINUOUS
 62
     7
 10
177.54775611973491
 20
127.784728047944
 30
0.0
 40
22.09195156362685
 50
197.9846290085473
 51
202.890022212036
  0
ARC
  5
124
  8
DATA
  6
CONTINUOUS
 62
     7
 10
142.4492438808368
 20
127.784728047944
 30
0.0
 40
22.09195156362685
 50
335.50584643576371
 51
335.50660176030249
  0
ARC
  5
125
  8
DATA
  6
CONTINUOUS
 62
     7
 10
142.4492438808368
 20
127.784728047944
 30
0.0
 40
22.09195156362685
 50
337.109977787964
 51
342.01537099145258
  0
LINE
  5
126
  8
DATA
  6
CONTINUOUS
 62
     7
 10
157.19547602649129
 20
118.0
 30
0.0
 11
157.19547602649129
 21
119.1917647118304
 31
0.0
  0
LINE
  5
127
  8
DATA
  6
CONTINUOUS
 62
     7
 10
162.8015239740804
 20
118.0
 30
0.0
 11
162.8015239740804
 21
119.1917647118304
 31
0.0
  0
LINE
  5
128
  8
DATA
  6
CONTINUOUS
 62
     7
 10
158.32596285757941
 20
109.999999996498
 30
0.0
 11
161.59197674042051
 21
109.999999996498
 31
0.0
  0
LINE
  5
129
  8
DATA
  6
CONTINUOUS
 62
     7
 10
164.95896979899999
 20
118.691118607449
 30
0.0
 11
164.95896979899999
 21
113.3669930550774
 31
0.0
  0
LINE
  5
12A
  8
DATA
  6
CONTINUOUS
 62
     7
 10
154.95896979899999
 20
113.3669930550774
 30
0.0
 11
154.95896979899999
 21
118.6597402461567
 31
0.0
  0
LINE
  5
12B
  8
DATA
  6
CONTINUOUS
 62
     7
 10
155.54475623662691
 20
111.95277949270429
 30
0.0
 11
156.91174929520631
 21
110.5857864341249
 31
0.0
  0
ARC
  5
12C
  8
DATA
  6
CONTINUOUS
 62
     7
 10
156.95896979899999
 20
113.3669930550774
 30
0.0
 40
2.0
 50
180.00000000000011
 51
225.00000000000011
  0
ARC
  5
12D
  8
DATA
  6
CONTINUOUS
 62
     7
 10
158.32596285757941
 20
111.999999996498
 30
0.0
 40
2.000000000000008
 50
224.9999999999998
 51
270.0
  0
LINE
  5
12E
  8
DATA
  6
CONTINUOUS
 62
     7
 10
164.37318336137309
 20
111.95277949270429
 30
0.0
 11
163.00619030279361
 21
110.5857864341249
 31
0.0
  0
ARC
  5
12F
  8
DATA
  6
CONTINUOUS
 62
     7
 10
162.95896979899999
 20
113.3669930550774
 30
0.0
 40
2.0
 50
314.99999999999989
 51
359.99999999999977
  0
ARC
  5
130
  8
DATA
  6
CONTINUOUS
 62
     7
 10
161.59197674042051
 20
111.999999996498
 30
0.0
 40
2.0
 50
270.0
 51
315.00000000000028
  0
ARC
  5
131
  8
DATA
  6
CONTINUOUS
 62
     7
 10
133.70953704889621
 20
134.06984806594119
 30
0.0
 40
0.5832828860461535
 50
123.1378519107466
 51
154.35433886230439
  0
ARC
  5
132
  8
DATA
  6
CONTINUOUS
 62
     7
 10
186.36116570190799
 20
134.2543751931259
 30
0.0
 40
0.4220157822305631
 50
345.6097254778818
 51
7.9753897197628012
  0
LINE
  5
133
  8
DATA
  6
CONTINUOUS
 62
     7
 10
154.95896979899999
 20
118.0
 30
0.0
 11
157.19547602649129
 21
118.0
 31
0.0
  0
LINE
  5
134
  8
DATA
  6
CONTINUOUS
 62
     7
 10
162.8015239740804
 20
118.0
 30
0.0
 11
164.95896979899999
 21
118.0
 31
0.0
  0
LINE
  5
135
  8
DATA
  6
CONTINUOUS
 62
     7
 10
113.46773605369251
 20
124.5724302814391
 30
0.0
 11
114.8680564263626
 21
116.9905017494243
 31
0.0
  0
ENDSEC
  0
EOF
