  0
SECTION
  2
HEADER
  9
$ACADVER
  1
AC1009
  9
$INSBASE
 10
0.0
 20
0.0
 30
0.0
  9
$EXTMIN
 10
-35.008239117460562
 20
-64.640993264707959
 30
-0.0015258207003583
  9
$EXTMAX
 10
235.00824037474621
 20
336.77905025076473
 30
0.0000000349246037
  9
$LIMMIN
 10
0.0
 20
0.0
  9
$LIMMAX
 10
0.0
 20
0.0
  9
$ORTHOMODE
 70
     0
  9
$REGENMODE
 70
     1
  9
$FILLMODE
 70
     1
  9
$QTEXTMODE
 70
     0
  9
$MIRRTEXT
 70
     1
  9
$DRAGMODE
 70
     2
  9
$LTSCALE
 40
7.6199999999999983
  9
$OSMODE
 70
   231
  9
$ATTMODE
 70
     1
  9
$TEXTSIZE
 40
0.0
  9
$TRACEWID
 40
1.0
  9
$TEXTSTYLE
  7
STANDARD
  9
$CLAYER
  8
DATA
  9
$CELTYPE
  6
BYLAYER
  9
$CECOLOR
 62
   256
  9
$DIMSCALE
 40
1.0
  9
$DIMASZ
 40
0.18
  9
$DIMEXO
 40
0.0625
  9
$DIMDLI
 40
0.38
  9
$DIMRND
 40
0.0
  9
$DIMDLE
 40
0.0
  9
$DIMEXE
 40
0.18
  9
$DIMTP
 40
0.0
  9
$DIMTM
 40
0.0
  9
$DIMTXT
 40
0.18
  9
$DIMCEN
 40
0.09
  9
$DIMTSZ
 40
0.0
  9
$DIMTOL
 70
     0
  9
$DIMLIM
 70
     0
  9
$DIMTIH
 70
     1
  9
$DIMTOH
 70
     1
  9
$DIMSE1
 70
     0
  9
$DIMSE2
 70
     0
  9
$DIMTAD
 70
     0
  9
$DIMZIN
 70
     0
  9
$DIMBLK
  1

  9
$DIMASO
 70
     1
  9
$DIMSHO
 70
     1
  9
$DIMPOST
  1

  9
$DIMAPOST
  1

  9
$DIMALT
 70
     0
  9
$DIMALTD
 70
     2
  9
$DIMALTF
 40
25.399999999999999
  9
$DIMLFAC
 40
1.0
  9
$DIMTOFL
 70
     0
  9
$DIMTVP
 40
0.0
  9
$DIMTIX
 70
     0
  9
$DIMSOXD
 70
     0
  9
$DIMSAH
 70
     0
  9
$DIMBLK1
  1

  9
$DIMBLK2
  1

  9
$DIMSTYLE
  2
STANDARD
  9
$DIMCLRD
 70
     0
  9
$DIMCLRE
 70
     0
  9
$DIMCLRT
 70
     0
  9
$DIMTFAC
 40
1.0
  9
$DIMGAP
 40
0.09
  9
$LUNITS
 70
     2
  9
$LUPREC
 70
     4
  9
$SKETCHINC
 40
0.1
  9
$FILLETRAD
 40
0.0
  9
$AUNITS
 70
     0
  9
$AUPREC
 70
     0
  9
$MENU
  1
acad
  9
$ELEVATION
 40
0.0
  9
$PELEVATION
 40
0.0
  9
$THICKNESS
 40
0.0
  9
$LIMCHECK
 70
     0
  9
$BLIPMODE
 70
     0
  9
$CHAMFERA
 40
0.0
  9
$CHAMFERB
 40
0.0
  9
$SKPOLY
 70
     0
  9
$TDCREATE
 40
2456597.4512152779
  9
$TDUPDATE
 40
2456597.4633314582
  9
$TDINDWG
 40
0.0002394097
  9
$TDUSRTIMER
 40
0.0002393634
  9
$USRTIMER
 70
     1
  9
$ANGBASE
 50
0.0
  9
$ANGDIR
 70
     0
  9
$PDMODE
 70
     1
  9
$PDSIZE
 40
-2.0
  9
$PLINEWID
 40
0.0
  9
$COORDS
 70
     2
  9
$SPLFRAME
 70
     0
  9
$SPLINETYPE
 70
     6
  9
$SPLINESEGS
 70
     8
  9
$ATTDIA
 70
     0
  9
$ATTREQ
 70
     1
  9
$HANDLING
 70
     1
  9
$HANDSEED
  5
1EC
  9
$SURFTAB1
 70
     6
  9
$SURFTAB2
 70
     6
  9
$SURFTYPE
 70
     6
  9
$SURFU
 70
     6
  9
$SURFV
 70
     6
  9
$UCSNAME
  2

  9
$UCSORG
 10
0.0
 20
0.0
 30
0.0
  9
$UCSXDIR
 10
1.0
 20
0.0
 30
0.0
  9
$UCSYDIR
 10
0.0
 20
1.0
 30
0.0
  9
$PUCSNAME
  2

  9
$PUCSORG
 10
0.0
 20
0.0
 30
0.0
  9
$PUCSXDIR
 10
1.0
 20
0.0
 30
0.0
  9
$PUCSYDIR
 10
0.0
 20
1.0
 30
0.0
  9
$USERI1
 70
     0
  9
$USERI2
 70
     0
  9
$USERI3
 70
     0
  9
$USERI4
 70
     0
  9
$USERI5
 70
     0
  9
$USERR1
 40
0.0
  9
$USERR2
 40
0.0
  9
$USERR3
 40
0.0
  9
$USERR4
 40
0.0
  9
$USERR5
 40
0.0
  9
$WORLDVIEW
 70
     1
  9
$SHADEDGE
 70
     3
  9
$SHADEDIF
 70
    70
  9
$TILEMODE
 70
     1
  9
$MAXACTVP
 70
    64
  9
$PLIMCHECK
 70
     0
  9
$PEXTMIN
 10
1.0000000000000000E+020
 20
1.0000000000000000E+020
 30
1.0000000000000000E+020
  9
$PEXTMAX
 10
-1.0000000000000000E+020
 20
-1.0000000000000000E+020
 30
-1.0000000000000000E+020
  9
$PLIMMIN
 10
0.0
 20
0.0
  9
$PLIMMAX
 10
12.0
 20
9.0
  9
$UNITMODE
 70
     0
  9
$VISRETAIN
 70
     0
  9
$PLINEGEN
 70
     1
  9
$PSLTSCALE
 70
     0
  0
ENDSEC
  0
SECTION
  2
TABLES
  0
TABLE
  2
VPORT
 70
     1
  0
VPORT
  2
*ACTIVE
 70
     0
 10
0.0
 20
0.0
 11
1.0
 21
1.0
 12
100.0000006286427
 22
136.0690284930283
 13
0.0
 23
0.0
 14
1.0
 24
1.0
 15
0.0
 25
0.0
 16
0.0
 26
0.0
 36
1.0
 17
0.0
 27
0.0
 37
0.0
 40
404.58083125968898
 41
2.1787122207621552
 42
50.0
 43
0.0
 44
0.0
 50
0.0
 51
0.0
 71
     0
 72
  2000
 73
     1
 74
     1
 75
     0
 76
     0
 77
     0
 78
     0
  0
ENDTAB
  0
TABLE
  2
LTYPE
 70
     4
  0
LTYPE
  2
CONTINUOUS
 70
     0
  3
Solid line
 72
    65
 73
     0
 40
0.0
  0
ENDTAB
  0
TABLE
  2
LAYER
 70
     5
  0
LAYER
  2
0
 70
     0
 62
     7
  6
CONTINUOUS
  0
LAYER
  2
DATA
 70
     0
 62
     7
  6
CONTINUOUS
  0
LAYER
  2
HIBINO-BASE
 70
     0
 62
     7
  6
CONTINUOUS
  0
LAYER
  2
SPEC
 70
     0
 62
     7
  6
CONTINUOUS
  0
LAYER
  2
DIMNSIONS
 70
     0
 62
     7
  6
CONTINUOUS
  0
ENDTAB
  0
TABLE
  2
STYLE
 70
     3
  0
STYLE
  2
STANDARD
 70
     0
 40
0.0
 41
1.0
 50
0.0
 71
     0
 42
0.0
  3
txt
  4
BIGFONT.SHX
  0
ENDTAB
  0
TABLE
  2
VIEW
 70
     0
  0
ENDTAB
  0
TABLE
  2
UCS
 70
     0
  0
ENDTAB
  0
TABLE
  2
APPID
 70
     4
  0
APPID
  2
ACAD
 70
     0
  0
APPID
  2
ACADANNOTATIVE
 70
     0
  0
APPID
  2
ACAD_NAV_VCDISPLAY
 70
     0
  0
APPID
  2
ACAD_MLEADERVER
 70
     0
  0
ENDTAB
  0
TABLE
  2
DIMSTYLE
 70
     2
  0
DIMSTYLE
  2
STANDARD
 70
     0
  3

  4

  5

  6

  7

 40
1.0
 41
0.18
 42
0.0625
 43
0.38
 44
0.18
 45
0.0
 46
0.0
 47
0.0
 48
0.0
140
0.18
141
0.09
142
0.0
143
25.399999999999999
144
1.0
145
0.0
146
1.0
147
0.09
 71
     0
 72
     0
 73
     1
 74
     1
 75
     0
 76
     0
 77
     0
 78
     0
170
     0
171
     2
172
     0
173
     0
174
     0
175
     0
176
     0
177
     0
178
     0
  0
ENDTAB
  0
ENDSEC
  0
SECTION
  2
BLOCKS
  0
BLOCK
  8
0
  2
$MODEL_SPACE
 70
     0
 10
0.0
 20
0.0
 30
0.0
  3
$MODEL_SPACE
  1

  0
ENDBLK
  5
170
  8
0
  0
BLOCK
 67
     1
  8
0
  2
$PAPER_SPACE
 70
     0
 10
0.0
 20
0.0
 30
0.0
  3
$PAPER_SPACE
  1

  0
ENDBLK
  5
16C
 67
     1
  8
0
  0
ENDSEC
  0
SECTION
  2
ENTITIES
  0
LINE
  5
25
  8
HIBINO-BASE
  6
CONTINUOUS
 62
     7
 10
-34.999999999999993
 20
336.76682394743301
 30
0.0
 11
235.0
 21
336.76682394743301
 31
0.0
  0
LINE
  5
26
  8
HIBINO-BASE
  6
CONTINUOUS
 62
     7
 10
235.0
 20
-53.233176052567039
 30
0.0
 11
-34.999999999999993
 21
-53.233176052567039
 31
0.0
  0
LINE
  5
27
  8
HIBINO-BASE
  6
CONTINUOUS
 62
     7
 10
-34.999999999999993
 20
-53.233176052567039
 30
0.0
 11
-34.999999999999993
 21
336.76682394743301
 31
0.0
  0
LINE
  5
28
  8
HIBINO-BASE
  6
CONTINUOUS
 62
     7
 10
235.0
 20
336.76682394743301
 30
0.0
 11
235.0
 21
-53.233176052567039
 31
0.0
  0
LINE
  5
29
  8
HIBINO-BASE
  6
CONTINUOUS
 62
     7
 10
100.0
 20
-19.483176052567011
 30
0.0
 11
235.0
 21
-19.483176052567011
 31
0.0
  0
LINE
  5
2A
  8
HIBINO-BASE
  6
CONTINUOUS
 62
     7
 10
100.0
 20
-53.233176052567039
 30
0.0
 11
100.0
 21
-19.483176052567011
 31
0.0
  0
TEXT
  5
2B
  8
HIBINO-BASE
 62
     7
 10
101.34999999999999
 20
-23.246216052567039
 30
0.0
 40
2.4432617187500001
  1
NOTE
 41
0.7
 11
101.34999999999999
 21
-20.802954333817041
 31
0.0
 73
     3
  0
LINE
  5
2C
  8
HIBINO-BASE
  6
CONTINUOUS
 62
     7
 10
152.5
 20
-53.233176052567039
 30
0.0
 11
152.5
 21
-19.483176052567011
 31
0.0
  0
TEXT
  5
2D
  8
HIBINO-BASE
 62
     7
 10
153.84999999999991
 20
-23.246216052567039
 30
0.0
 40
2.4432617187500001
  1
TITLE
 41
0.7
 11
153.84999999999991
 21
-20.802954333817041
 31
0.0
 73
     3
  0
LINE
  5
2E
  8
HIBINO-BASE
  6
CONTINUOUS
 62
     7
 10
100.0
 20
-38.233176052567018
 30
0.0
 11
235.0
 21
-38.233176052567018
 31
0.0
  0
TEXT
  5
2F
  8
HIBINO-BASE
 62
     7
 10
172.59999999999991
 20
-41.911736052567058
 30
0.0
 40
2.4432617187500001
  1
DRAWN
 41
0.7
 11
172.59999999999991
 21
-39.468474333817049
 31
0.0
 73
     3
  0
TEXT
  5
30
  8
HIBINO-BASE
 62
     7
 10
135.09999999999991
 20
-41.911736052567058
 30
0.0
 40
2.4432617187500001
  1
DATE
 41
0.7
 11
135.09999999999991
 21
-39.468474333817049
 31
0.0
 73
     3
  0
TEXT
  5
31
  8
HIBINO-BASE
 62
     7
 10
120.09999999999999
 20
-41.911736052567058
 30
0.0
 40
2.4432617187500001
  1
SCALE
 41
0.7
 11
120.09999999999999
 21
-39.468474333817049
 31
0.0
 73
     3
  0
TEXT
  5
32
  8
HIBINO-BASE
 62
     7
 10
153.84999999999991
 20
-41.911736052567058
 30
0.0
 40
2.4432617187500001
  1
DESIGN
 41
0.7
 11
153.84999999999991
 21
-39.468474333817049
 31
0.0
 73
     3
  0
TEXT
  5
33
  8
HIBINO-BASE
 62
     7
 10
210.09999999999999
 20
-41.911736052567058
 30
0.0
 40
2.4432617187500001
  1
DRAWING NO.
 41
0.7
 11
210.09999999999999
 21
-39.468474333817049
 31
0.0
 73
     3
  0
TEXT
  5
34
  8
HIBINO-BASE
 62
     7
 10
191.34999999999999
 20
-41.911736052567058
 30
0.0
 40
2.4432617187500001
  1
CHECK
 41
0.7
 11
191.34999999999999
 21
-39.468474333817049
 31
0.0
 73
     3
  0
LINE
  5
35
  8
HIBINO-BASE
  6
CONTINUOUS
 62
     7
 10
121.5625
 20
-51.358176052567039
 30
0.0
 11
127.1875
 21
-45.733176052567018
 31
0.0
  0
TEXT
  5
36
  8
HIBINO-BASE
 62
     7
 10
120.625
 20
-47.396591052567047
 30
0.0
 40
2.4432617187500001
  1
1
 41
0.7
 11
120.625
 21
-44.953329333817038
 31
0.0
 73
     3
  0
LINE
  5
37
  8
HIBINO-BASE
  6
CONTINUOUS
 62
     7
 10
118.75
 20
-53.233176052567039
 30
0.0
 11
118.75
 21
-38.233176052567018
 31
0.0
  0
LINE
  5
38
  8
HIBINO-BASE
  6
CONTINUOUS
 62
     7
 10
133.74999999999989
 20
-53.233176052567039
 30
0.0
 11
133.74999999999989
 21
-38.233176052567018
 31
0.0
  0
LINE
  5
39
  8
HIBINO-BASE
  6
CONTINUOUS
 62
     7
 10
171.24999999999989
 20
-38.233176052567018
 30
0.0
 11
171.24999999999989
 21
-53.233176052567039
 31
0.0
  0
LINE
  5
3A
  8
HIBINO-BASE
  6
CONTINUOUS
 62
     7
 10
208.75
 20
-38.233176052567018
 30
0.0
 11
208.75
 21
-53.233176052567039
 31
0.0
  0
LINE
  5
3B
  8
HIBINO-BASE
  6
CONTINUOUS
 62
     7
 10
190.0
 20
-53.233176052567039
 30
0.0
 11
190.0
 21
-38.233176052567018
 31
0.0
  0
TEXT
  5
3C
  8
HIBINO-BASE
 62
     7
 10
135.03480999999999
 20
-48.937706052567059
 30
0.0
 40
2.4432617187500001
  1
'13.10.
 41
0.7
 11
135.03480999999999
 21
-46.494444333817057
 31
0.0
 73
     3
  0
TEXT
  5
3D
  8
HIBINO-BASE
 62
     7
 10
126.25
 20
-50.209091052567047
 30
0.0
 40
2.4432617187500001
  1
1.5
 41
0.7
 11
126.25
 21
-47.765829333817038
 31
0.0
 73
     3
  0
TEXT
  5
3E
  8
HIBINO-BASE
 62
     7
 10
173.508715016552
 20
-48.937706052567059
 30
0.0
 40
2.4432617187500001
  1
Ootake
 41
0.7
 11
173.508715016552
 21
-46.494444333817057
 31
0.0
 73
     3
  0
TEXT
  5
3F
  8
HIBINO-BASE
 62
     7
 10
105.825
 20
-50.269176052567033
 30
0.0
 40
4.8865234374999993
  1
A4
 41
0.7
 11
105.825
 21
-45.38265261506703
 31
0.0
 73
     3
  0
TEXT
  5
40
  8
HIBINO-BASE
 62
     7
 10
101.4375
 20
-42.162358552567007
 30
0.0
 40
2.4432617187500001
  1
PAPER SIZE
 41
0.7
 11
101.4375
 21
-39.719096833817012
 31
0.0
 73
     3
  0
TEXT
  5
41
  8
HIBINO-BASE
 62
     7
 10
-30.86054711466473
 20
-62.871036403831432
 30
0.0
 40
5.293733723958332
  1
Hibino-Intersound Corporation
 41
0.7
 11
-30.86054711466473
 21
-57.577302679873107
 31
0.0
 73
     3
  0
TEXT
  5
42
  8
HIBINO-BASE
 62
     7
 10
130.27091452032079
 20
-62.34440402389729
 30
0.0
 40
5.293733723958332
  1
ヒビノインターサウンド株式会社
 41
0.7
 11
130.27091452032079
 21
-57.050670299938957
 31
0.0
 73
     3
  0
LINE
  5
43
  8
SPEC
  6
CONTINUOUS
 62
     7
 10
-23.749999999999989
 20
321.7668239474329
 30
0.0
 11
197.5
 21
321.7668239474329
 31
0.0
  0
LINE
  5
44
  8
SPEC
  6
CONTINUOUS
 62
     7
 10
-23.749999999999989
 20
316.1418239474329
 30
0.0
 11
197.5
 21
316.1418239474329
 31
0.0
  0
LINE
  5
45
  8
SPEC
  6
CONTINUOUS
 62
     7
 10
-23.749999999999989
 20
310.51682394743301
 30
0.0
 11
197.5
 21
310.51682394743301
 31
0.0
  0
LINE
  5
46
  8
SPEC
  6
CONTINUOUS
 62
     7
 10
-23.749999999999989
 20
321.7668239474329
 30
0.0
 11
-23.749999999999989
 21
310.51682394743278
 31
0.0
  0
TEXT
  5
47
  8
SPEC
 62
     7
 10
-21.874999999999989
 20
323.856728947433
 30
0.0
 40
3.664892578124999
  1
仕様
 41
0.7
 11
-21.874999999999989
 21
327.52162152555798
 31
0.0
 73
     3
  0
LINE
  5
48
  8
SPEC
  6
CONTINUOUS
 62
     7
 10
25.0
 20
321.7668239474329
 30
0.0
 11
25.0
 21
310.51682394743278
 31
0.0
  0
LINE
  5
49
  8
SPEC
  6
CONTINUOUS
 62
     7
 10
197.5
 20
321.7668239474329
 30
0.0
 11
197.5
 21
310.51682394743278
 31
0.0
  0
TEXT
  5
4A
  8
SPEC
 62
     7
 10
-22.550096913281209
 20
317.53218193763718
 30
0.0
 40
2.8504720052083332
  1
寸法(W\U+00D7H\U+00D7D）
 41
0.7
 11
-22.550096913281209
 21
320.38265394284559
 31
0.0
 73
     3
  0
TEXT
  5
4B
  8
SPEC
 62
     7
 10
26.325360646267949
 20
317.44226641639489
 30
0.0
 40
2.8504720052083332
  1
33.0\U+00D737.0\U+00D7357mm(除突起部)
 41
0.7
 11
26.325360646267949
 21
320.2927384216033
 31
0.0
 73
     3
  0
TEXT
  5
4C
  8
SPEC
 62
     7
 10
26.34850856456757
 20
312.0627088158347
 30
0.0
 40
2.8504720052083332
  1
15g
 41
0.7
 11
26.34850856456757
 21
314.91318082104311
 31
0.0
 73
     3
  0
TEXT
  5
4D
  8
SPEC
 62
     7
 10
-22.497116550069901
 20
312.04566274594413
 30
0.0
 40
2.8504720052083332
  1
質量
 41
0.7
 11
-22.497116550069901
 21
314.89613475115249
 31
0.0
 73
     3
  0
TEXT
  5
4E
  8
DIMNSIONS
 62
     7
 10
69.999999999999986
 20
-34.828941052567039
 30
0.0
 40
3.664892578124999
  1
(単位：mm)
 41
0.7
 11
69.999999999999986
 21
-31.164048474442041
 31
0.0
 73
     3
  0
LINE
  5
4F
  8
DIMNSIONS
  6
CONTINUOUS
 62
     7
 10
39.99999999996929
 20
212.99999999587001
 30
0.0
 11
39.99999999996929
 21
223.0
 31
0.0
  0
LINE
  5
50
  8
DIMNSIONS
  6
CONTINUOUS
 62
     7
 10
72.999999999969262
 20
212.99999999587001
 30
0.0
 11
72.999999999969262
 21
223.0
 31
0.0
  0
LINE
  5
51
  8
DIMNSIONS
  6
CONTINUOUS
 62
     7
 10
39.99999999996929
 20
220.0
 30
0.0
 11
72.999999999969262
 21
220.0
 31
0.0
  0
LINE
  5
52
  8
DIMNSIONS
  6
CONTINUOUS
 62
     7
 10
39.99999999996929
 20
220.0
 30
0.0
 11
43.750933837859897
 21
221.0050596927253
 31
0.0
  0
LINE
  5
53
  8
DIMNSIONS
  6
CONTINUOUS
 62
     7
 10
39.99999999996929
 20
220.0
 30
0.0
 11
43.750933837859897
 21
218.99494030727459
 31
0.0
  0
LINE
  5
54
  8
DIMNSIONS
  6
CONTINUOUS
 62
     7
 10
72.999999999969262
 20
220.0
 30
0.0
 11
69.249066162078634
 21
218.99494030727459
 31
0.0
  0
LINE
  5
55
  8
DIMNSIONS
  6
CONTINUOUS
 62
     7
 10
72.999999999969262
 20
220.0
 30
0.0
 11
69.249066162078634
 21
221.0050596927253
 31
0.0
  0
TEXT
  5
56
  8
DIMNSIONS
 62
     7
 10
51.208332828649951
 20
221.49083338852969
 30
0.0
 40
4.0721031679786801
  1
33.0
 41
0.7
 11
51.208332828649951
 21
225.56293655650839
 31
0.0
 73
     3
  0
LINE
  5
57
  8
DIMNSIONS
  6
CONTINUOUS
 62
     7
 10
53.443954247908742
 20
9.9501588288125031
 30
0.0
 11
17.0
 21
9.9501588288125031
 31
0.0
  0
LINE
  5
58
  8
DIMNSIONS
  6
CONTINUOUS
 62
     7
 10
36.999999999969283
 20
209.99999999587001
 30
0.0
 11
17.0
 21
209.99999999587001
 31
0.0
  0
LINE
  5
59
  8
DIMNSIONS
  6
CONTINUOUS
 62
     7
 10
20.0
 20
9.9501588288125031
 30
0.0
 11
20.0
 21
209.99999999587001
 31
0.0
  0
LINE
  5
5A
  8
DIMNSIONS
  6
CONTINUOUS
 62
     7
 10
20.0
 20
9.9501588288125031
 30
0.0
 11
18.994940307274629
 21
13.701092666703129
 31
0.0
  0
LINE
  5
5B
  8
DIMNSIONS
  6
CONTINUOUS
 62
     7
 10
20.0
 20
9.9501588288125031
 30
0.0
 11
21.005059692725371
 21
13.701092666703129
 31
0.0
  0
LINE
  5
5C
  8
DIMNSIONS
  6
CONTINUOUS
 62
     7
 10
20.0
 20
209.99999999587001
 30
0.0
 11
21.005059692725371
 21
206.2490661579794
 31
0.0
  0
LINE
  5
5D
  8
DIMNSIONS
  6
CONTINUOUS
 62
     7
 10
20.0
 20
209.99999999587001
 30
0.0
 11
18.994940307274629
 21
206.2490661579794
 31
0.0
  0
TEXT
  5
5E
  8
DIMNSIONS
 62
     7
 10
18.509166578352438
 20
106.0063291600149
 30
0.0
 40
4.0721033500158876
  1
357
 50
90.0
 41
0.7
 11
14.43706322833655
 21
106.0063291600149
 31
0.0
 73
     3
  0
LINE
  5
5F
  8
DIMNSIONS
  6
CONTINUOUS
 62
     7
 10
45.49999999996929
 20
240.0
 30
0.0
 11
17.0
 21
240.0
 31
0.0
  0
LINE
  5
60
  8
DIMNSIONS
  6
CONTINUOUS
 62
     7
 10
42.499178337186073
 20
277.0
 30
0.0
 11
17.0
 21
277.0
 31
0.0
  0
LINE
  5
61
  8
DIMNSIONS
  6
CONTINUOUS
 62
     7
 10
20.0
 20
240.0
 30
0.0
 11
20.0
 21
277.0
 31
0.0
  0
LINE
  5
62
  8
DIMNSIONS
  6
CONTINUOUS
 62
     7
 10
20.0
 20
240.0
 30
0.0
 11
18.994940307274629
 21
243.75093383789061
 31
0.0
  0
LINE
  5
63
  8
DIMNSIONS
  6
CONTINUOUS
 62
     7
 10
20.0
 20
240.0
 30
0.0
 11
21.005059692725371
 21
243.75093383789061
 31
0.0
  0
LINE
  5
64
  8
DIMNSIONS
  6
CONTINUOUS
 62
     7
 10
20.0
 20
277.0
 30
0.0
 11
21.005059692725371
 21
273.24906616210939
 31
0.0
  0
LINE
  5
65
  8
DIMNSIONS
  6
CONTINUOUS
 62
     7
 10
20.0
 20
277.0
 30
0.0
 11
18.994940307274629
 21
273.24906616210939
 31
0.0
  0
TEXT
  5
66
  8
DIMNSIONS
 62
     7
 10
18.509166578352438
 20
253.20833282868071
 30
0.0
 40
4.0721033500158876
  1
37.0
 50
90.0
 41
0.7
 11
14.43706322833655
 21
253.20833282868071
 31
0.0
 73
     3
  0
LINE
  5
67
  8
DIMNSIONS
  6
CONTINUOUS
 62
     7
 10
36.999999999969283
 20
209.99999999587001
 30
0.0
 11
26.99999999996929
 21
209.99999999587001
 31
0.0
  0
LINE
  5
68
  8
DIMNSIONS
  6
CONTINUOUS
 62
     7
 10
36.999999999969283
 20
182.99999999587001
 30
0.0
 11
26.99999999996929
 21
182.99999999587001
 31
0.0
  0
LINE
  5
69
  8
DIMNSIONS
  6
CONTINUOUS
 62
     7
 10
29.99999999996929
 20
209.99999999587001
 30
0.0
 11
29.99999999996929
 21
182.99999999587001
 31
0.0
  0
LINE
  5
6A
  8
DIMNSIONS
  6
CONTINUOUS
 62
     7
 10
29.99999999996929
 20
209.99999999587001
 30
0.0
 11
31.005059692694658
 21
206.2490661579794
 31
0.0
  0
LINE
  5
6B
  8
DIMNSIONS
  6
CONTINUOUS
 62
     7
 10
29.99999999996929
 20
209.99999999587001
 30
0.0
 11
28.994940307243919
 21
206.2490661579794
 31
0.0
  0
LINE
  5
6C
  8
DIMNSIONS
  6
CONTINUOUS
 62
     7
 10
29.99999999996929
 20
182.99999999587001
 30
0.0
 11
28.994940307243919
 21
186.7509338337606
 31
0.0
  0
LINE
  5
6D
  8
DIMNSIONS
  6
CONTINUOUS
 62
     7
 10
29.99999999996929
 20
182.99999999587001
 30
0.0
 11
31.005059692694658
 21
186.7509338337606
 31
0.0
  0
TEXT
  5
6E
  8
DIMNSIONS
 62
     7
 10
28.509166611439571
 20
191.20833282455069
 30
0.0
 40
4.0721031679786801
  1
27.0
 50
90.0
 41
0.7
 11
24.43706344346089
 21
191.20833282455069
 31
0.0
 73
     3
  0
LINE
  5
6F
  8
DIMNSIONS
  6
CONTINUOUS
 62
     7
 10
46.499999999969283
 20
6.9499999958699732
 30
0.0
 11
46.499999999969283
 21
-3.000000004130015
 31
0.0
  0
LINE
  5
70
  8
DIMNSIONS
  6
CONTINUOUS
 62
     7
 10
66.499999999969276
 20
6.9499999958699163
 30
0.0
 11
66.499999999969248
 21
-3.000000004130043
 31
0.0
  0
LINE
  5
71
  8
DIMNSIONS
  6
CONTINUOUS
 62
     7
 10
46.499999999969283
 20
-0.0000000041300154
 30
0.0
 11
66.499999999969248
 21
-0.0000000041300439
 31
0.0
  0
LINE
  5
72
  8
DIMNSIONS
  6
CONTINUOUS
 62
     7
 10
46.499999999969283
 20
-0.0000000041300154
 30
0.0
 11
50.25093383785989
 21
1.005059688595338
 31
0.0
  0
LINE
  5
73
  8
DIMNSIONS
  6
CONTINUOUS
 62
     7
 10
46.499999999969283
 20
-0.0000000041300154
 30
0.0
 11
50.25093383785989
 21
-1.0050596968553689
 31
0.0
  0
LINE
  5
74
  8
DIMNSIONS
  6
CONTINUOUS
 62
     7
 10
66.499999999969248
 20
-0.0000000041300439
 30
0.0
 11
62.732096737219031
 21
-0.9394437995378551
 31
0.0
  0
LINE
  5
75
  8
DIMNSIONS
  6
CONTINUOUS
 62
     7
 10
66.499999999969248
 20
-0.0000000041300439
 30
0.0
 11
62.767178157721389
 21
1.0703694349942341
 31
0.0
  0
TEXT
  5
76
  8
DIMNSIONS
 62
     7
 10
51.208332828649937
 20
-1.905000146063583
 30
0.0
 40
4.0721031679786801
  1
20.0
 41
0.7
 11
51.208332828649937
 21
2.167103021915096
 31
0.0
 73
     3
  0
TEXT
  5
77
  8
DATA
 62
     7
 10
174.74138614311261
 20
-36.910947167063483
 30
0.0
 40
3.664892578124999
  1
UC4099
 41
0.7
 11
174.74138614311261
 21
-33.246054588938478
 31
0.0
 73
     3
  0
TEXT
  5
78
  8
DATA
 62
     7
 10
174.78448845259379
 20
-25.53253412412333
 30
0.0
 40
3.664892578124999
  1
DPA
 41
0.7
 11
174.78448845259379
 21
-21.867641545998332
 31
0.0
 73
     3
  0
TEXT
  5
79
  8
DATA
 62
     7
 10
172.2322243351482
 20
-30.577990460969868
 30
0.0
 40
2.4432655664062488
  1
木管楽器用クリップ
 41
0.7
 11
172.2322243351482
 21
-28.134724894563622
 31
0.0
 73
     3
  0
TEXT
  5
7A
  8
DATA
 62
     7
 10
-31.14481605205016
 20
-43.293759776082297
 30
0.0
 40
2.8504720052083332
  1
※仕様及び外観は予告なく変更されることがあります。
 41
0.7
 11
-31.14481605205016
 21
-40.443287770873972
 31
0.0
 73
     3
  0
TEXT
  5
7B
  8
DATA
 62
     7
 10
-31.14481605205016
 20
-46.997926442748962
 30
0.0
 40
2.8504720052083332
  1
　また、同一商品でも若干の個体差があることがあります。ご了承ください。
 41
0.7
 11
-31.14481605205016
 21
-44.147454437540631
 31
0.0
 73
     3
  0
POLYLINE
  5
7C
  8
DATA
  6
CONTINUOUS
 62
     7
 66
     1
 10
0.0
 20
0.0
 30
0.0
  0
VERTEX
  5
199
  8
DATA
  6
CONTINUOUS
 62
     7
 10
72.999999999969262
 20
187.49999999587001
 30
0.0
  0
VERTEX
  5
19A
  8
DATA
  6
CONTINUOUS
 62
     7
 10
72.999999999969262
 20
182.99999999587001
 30
0.0
  0
VERTEX
  5
19B
  8
DATA
  6
CONTINUOUS
 62
     7
 10
66.499999999969276
 20
182.99999999587001
 30
0.0
  0
SEQEND
  5
19C
  8
DATA
  6
CONTINUOUS
 62
     7
  0
POLYLINE
  5
82
  8
DATA
  6
CONTINUOUS
 62
     7
 66
     1
 10
0.0
 20
0.0
 30
0.0
  0
VERTEX
  5
19D
  8
DATA
  6
CONTINUOUS
 62
     7
 10
46.499999999969297
 20
182.99999999587001
 30
0.0
  0
VERTEX
  5
19E
  8
DATA
  6
CONTINUOUS
 62
     7
 10
39.99999999996929
 20
182.99999999587001
 30
0.0
  0
VERTEX
  5
19F
  8
DATA
  6
CONTINUOUS
 62
     7
 10
39.99999999996929
 20
187.49999999587001
 30
0.0
  0
SEQEND
  5
1A0
  8
DATA
  6
CONTINUOUS
 62
     7
  0
POLYLINE
  5
88
  8
DATA
  6
CONTINUOUS
 62
     7
 66
     1
 10
0.0
 20
0.0
 30
0.0
  0
VERTEX
  5
1A1
  8
DATA
  6
CONTINUOUS
 62
     7
 10
39.99999999996929
 20
205.49999999587001
 30
0.0
  0
VERTEX
  5
1A2
  8
DATA
  6
CONTINUOUS
 62
     7
 10
39.99999999996929
 20
209.99999999587001
 30
0.0
  0
VERTEX
  5
1A3
  8
DATA
  6
CONTINUOUS
 62
     7
 10
72.999999999969262
 20
209.99999999587001
 30
0.0
  0
VERTEX
  5
1A4
  8
DATA
  6
CONTINUOUS
 62
     7
 10
72.999999999969262
 20
205.49999999587001
 30
0.0
  0
SEQEND
  5
1A5
  8
DATA
  6
CONTINUOUS
 62
     7
  0
POLYLINE
  5
8F
  8
DATA
  6
CONTINUOUS
 62
     7
 66
     1
 10
0.0
 20
0.0
 30
0.0
 70
     1
  0
VERTEX
  5
1A6
  8
DATA
  6
CONTINUOUS
 62
     7
 10
71.499999999969276
 20
204.49999999587001
 30
0.0
  0
VERTEX
  5
1A7
  8
DATA
  6
CONTINUOUS
 62
     7
 10
71.499999999969276
 20
188.49999999587001
 30
0.0
  0
VERTEX
  5
1A8
  8
DATA
  6
CONTINUOUS
 62
     7
 10
41.499999999969283
 20
188.49999999587001
 30
0.0
  0
VERTEX
  5
1A9
  8
DATA
  6
CONTINUOUS
 62
     7
 10
41.499999999969283
 20
204.49999999587001
 30
0.0
  0
SEQEND
  5
1AA
  8
DATA
  6
CONTINUOUS
 62
     7
  0
LINE
  5
96
  8
DATA
  6
CONTINUOUS
 62
     7
 10
69.999999999969248
 20
204.49999999587001
 30
0.0
 11
69.999999999969248
 21
188.49999999587001
 31
0.0
  0
LINE
  5
97
  8
DATA
  6
CONTINUOUS
 62
     7
 10
42.999999999969283
 20
204.49999999587001
 30
0.0
 11
42.999999999969283
 21
188.49999999587001
 31
0.0
  0
LINE
  5
98
  8
DATA
  6
CONTINUOUS
 62
     7
 10
46.49999999996929
 20
19.950317666800562
 30
0.0
 11
46.49999999996929
 21
113.38901025335559
 31
0.0
  0
LINE
  5
99
  8
DATA
  6
CONTINUOUS
 62
     7
 10
46.49999999996929
 20
115.7427563165238
 30
0.0
 11
46.49999999996929
 21
188.49999999587001
 31
0.0
  0
LINE
  5
9A
  8
DATA
  6
CONTINUOUS
 62
     7
 10
66.499999999969276
 20
188.49999999587001
 30
0.0
 11
66.499999999969276
 21
110.483747209179
 31
0.0
  0
LINE
  5
9B
  8
DATA
  6
CONTINUOUS
 62
     7
 10
66.499999999969276
 20
108.1300011460107
 30
0.0
 11
66.499999999969276
 21
19.8375926112912
 31
0.0
  0
LINE
  5
9C
  8
DATA
  6
CONTINUOUS
 62
     7
 10
64.499999999969305
 20
204.49999999587001
 30
0.0
 11
64.499999999969305
 21
188.49999999587001
 31
0.0
  0
LINE
  5
9D
  8
DATA
  6
CONTINUOUS
 62
     7
 10
48.49999999996929
 20
204.49999999587001
 30
0.0
 11
48.49999999996929
 21
188.49999999587001
 31
0.0
  0
ARC
  5
9E
  8
DATA
  6
CONTINUOUS
 62
     7
 10
76.860317460286751
 20
188.67380951967951
 30
0.0
 40
6.862518882079967
 50
181.45130633904239
 51
235.76961299288769
  0
ARC
  5
9F
  8
DATA
  6
CONTINUOUS
 62
     7
 10
76.860317460286751
 20
204.3261904720604
 30
0.0
 40
6.8625188820799732
 50
124.2303870071122
 51
178.5486936609573
  0
ARC
  5
A0
  8
DATA
  6
CONTINUOUS
 62
     7
 10
36.13968253965178
 20
188.67380951967951
 30
0.0
 40
6.8625188820799492
 50
304.23038700711231
 51
358.54869366095761
  0
ARC
  5
A1
  8
DATA
  6
CONTINUOUS
 62
     7
 10
36.13968253965178
 20
204.3261904720604
 30
0.0
 40
6.8625188820799679
 50
1.4513063390426979
 51
55.769612992887822
  0
LINE
  5
A2
  8
DATA
  6
CONTINUOUS
 62
     7
 10
48.49999999996929
 20
200.74999999587001
 30
0.0
 11
64.499999999969305
 21
200.74999999587001
 31
0.0
  0
LINE
  5
A3
  8
DATA
  6
CONTINUOUS
 62
     7
 10
64.499999999969305
 20
192.24999999587001
 30
0.0
 11
48.49999999996929
 21
192.24999999587001
 31
0.0
  0
LINE
  5
A4
  8
DATA
  6
CONTINUOUS
 62
     7
 10
64.499999999969305
 20
200.74999999587001
 30
0.0
 11
48.49999999996929
 21
200.74999999587001
 31
0.0
  0
LINE
  5
A5
  8
DATA
  6
CONTINUOUS
 62
     7
 10
64.499999999969305
 20
192.24999999587001
 30
0.0
 11
48.49999999996929
 21
192.24999999587001
 31
0.0
  0
LINE
  5
A6
  8
DATA
  6
CONTINUOUS
 62
     7
 10
48.49999999996929
 20
197.59999999587001
 30
0.0
 11
64.499999999969305
 21
197.59999999587001
 31
0.0
  0
LINE
  5
A7
  8
DATA
  6
CONTINUOUS
 62
     7
 10
48.49999999996929
 20
195.39999999586999
 30
0.0
 11
64.499999999969305
 21
195.39999999586999
 31
0.0
  0
ARC
  5
A8
  8
DATA
  6
CONTINUOUS
 62
     7
 10
114.19743460871931
 20
196.49999999587001
 30
0.0
 40
42.169048108087949
 50
167.67675947823039
 51
192.32324052176961
  0
ARC
  5
A9
  8
DATA
  6
CONTINUOUS
 62
     7
 10
-1.197434608780511
 20
196.49999999587001
 30
0.0
 40
42.169048108087694
 50
347.67675947823039
 51
12.323240521769661
  0
ARC
  5
AA
  8
DATA
  6
CONTINUOUS
 62
     7
 10
62.381145380478458
 20
116.1035104466178
 30
0.0
 40
8.9745091199111346
 50
217.9549041946303
 51
335.37141709336692
  0
ARC
  5
AB
  8
DATA
  6
CONTINUOUS
 62
     7
 10
48.533142330935277
 20
104.5499288081521
 30
0.0
 40
9.0698968314368162
 50
41.702701641163522
 51
165.90121334720581
  0
ARC
  5
AC
  8
DATA
  6
CONTINUOUS
 62
     7
 10
62.381145380478458
 20
118.45725650978611
 30
0.0
 40
8.9745091199111346
 50
217.9549041946303
 51
335.37141709336652
  0
ARC
  5
AD
  8
DATA
  6
CONTINUOUS
 62
     7
 10
48.533142330935277
 20
106.90367487132031
 30
0.0
 40
9.0698968314368642
 50
41.702701641163841
 51
165.90121334720541
  0
ARC
  5
AE
  8
DATA
  6
CONTINUOUS
 62
     7
 10
56.500317670899904
 20
19.950317666800562
 30
0.0
 40
10.000317675976209
 50
180.0
 51
359.35413984659027
  0
ARC
  5
AF
  8
DATA
  6
CONTINUOUS
 62
     7
 10
117.9186272462314
 20
113.7349745353896
 30
0.0
 40
4.4872545599555771
 50
217.95490419463019
 51
335.37141709336692
  0
ARC
  5
B0
  8
DATA
  6
CONTINUOUS
 62
     7
 10
110.9946257214598
 20
107.9581837161567
 30
0.0
 40
4.5349484157184099
 50
41.702701641163571
 51
165.9012133472057
  0
ARC
  5
B1
  8
DATA
  6
CONTINUOUS
 62
     7
 10
117.9186272462314
 20
114.91184756697371
 30
0.0
 40
4.4872545599555771
 50
217.95490419463019
 51
335.37141709336652
  0
ARC
  5
B2
  8
DATA
  6
CONTINUOUS
 62
     7
 10
110.9946257214598
 20
109.1350567477408
 30
0.0
 40
4.5349484157184321
 50
41.702701641163841
 51
165.90121334720541
  0
LINE
  5
B3
  8
DATA
  6
CONTINUOUS
 62
     7
 10
100.0
 20
206.1343772915877
 30
0.0
 11
100.0
 21
205.92086603985311
 31
0.0
  0
LINE
  5
B4
  8
DATA
  6
CONTINUOUS
 62
     7
 10
112.0
 20
204.49999999587001
 30
0.0
 11
112.0
 21
188.49999999587001
 31
0.0
  0
ARC
  5
B5
  8
DATA
  6
CONTINUOUS
 62
     7
 10
105.4687500049689
 20
199.3749999759942
 30
0.0
 40
10.6382729791813
 50
70.613536735851056
 51
92.862405194037123
  0
LINE
  5
B6
  8
DATA
  6
CONTINUOUS
 62
     7
 10
109.0
 20
191.40995105050939
 30
0.0
 11
109.0
 21
201.59004894123049
 31
0.0
  0
ARC
  5
B7
  8
DATA
  6
CONTINUOUS
 62
     7
 10
103.5822146651077
 20
201.43244865913471
 30
0.0
 40
5.4200771012864726
 50
358.33376836666741
 51
126.9995893953753
  0
ARC
  5
B8
  8
DATA
  6
CONTINUOUS
 62
     7
 10
105.6730285064574
 20
202.6257340770297
 30
0.0
 40
7.4108569012605692
 50
95.695991164152716
 51
127.3016393250885
  0
LINE
  5
B9
  8
DATA
  6
CONTINUOUS
 62
     7
 10
112.0
 20
204.49999999587001
 30
0.0
 11
127.0
 21
204.49999999587001
 31
0.0
  0
LINE
  5
BA
  8
DATA
  6
CONTINUOUS
 62
     7
 10
111.0
 20
188.49999999587001
 30
0.0
 11
127.0
 21
188.49999999587001
 31
0.0
  0
LINE
  5
BB
  8
DATA
  6
CONTINUOUS
 62
     7
 10
111.0
 20
188.49999999587001
 30
0.0
 11
111.0
 21
204.49999999587001
 31
0.0
  0
ARC
  5
BC
  8
DATA
  6
CONTINUOUS
 62
     7
 10
106.0927141108303
 20
204.2622565494971
 30
0.0
 40
5.9120680411067692
 50
2.3046707090151561
 51
60.54403680068549
  0
ARC
  5
BD
  8
DATA
  6
CONTINUOUS
 62
     7
 10
100.2
 20
205.92086603985311
 30
0.0
 40
0.2000000000000053
 50
180.0
 51
306.99958939537402
  0
ARC
  5
BE
  8
DATA
  6
CONTINUOUS
 62
     7
 10
103.0
 20
206.1343772915877
 30
0.0
 40
3.0000000000000129
 50
127.3016393250888
 51
180.0
  0
LINE
  5
BF
  8
DATA
  6
CONTINUOUS
 62
     7
 10
100.0
 20
186.86562270015219
 30
0.0
 11
100.0
 21
187.0791339518868
 31
0.0
  0
ARC
  5
C0
  8
DATA
  6
CONTINUOUS
 62
     7
 10
105.4687500049689
 20
193.62500001574571
 30
0.0
 40
10.6382729791813
 50
267.13759480596292
 51
289.38646326414892
  0
ARC
  5
C1
  8
DATA
  6
CONTINUOUS
 62
     7
 10
103.5822146651077
 20
191.56755133260529
 30
0.0
 40
5.4200771012864752
 50
233.0004106046247
 51
358.3337683666677
  0
ARC
  5
C2
  8
DATA
  6
CONTINUOUS
 62
     7
 10
105.6730285064574
 20
190.37426591471021
 30
0.0
 40
7.4108569012605718
 50
232.6983606749115
 51
264.3040088358473
  0
ARC
  5
C3
  8
DATA
  6
CONTINUOUS
 62
     7
 10
106.0927141108303
 20
188.7377434422429
 30
0.0
 40
5.9120680411067674
 50
299.45596319931451
 51
357.69532929098477
  0
ARC
  5
C4
  8
DATA
  6
CONTINUOUS
 62
     7
 10
100.2
 20
187.0791339518868
 30
0.0
 40
0.1999999999999993
 50
53.00041060462604
 51
180.0
  0
ARC
  5
C5
  8
DATA
  6
CONTINUOUS
 62
     7
 10
103.0
 20
186.86562270015219
 30
0.0
 40
3.0000000000000169
 50
180.0
 51
232.6983606749113
  0
LINE
  5
C6
  8
DATA
  6
CONTINUOUS
 62
     7
 10
100.0
 20
186.86562270015219
 30
0.0
 11
100.0
 21
187.0791339518868
 31
0.0
  0
LINE
  5
C7
  8
DATA
  6
CONTINUOUS
 62
     7
 10
100.0
 20
205.92086603985311
 30
0.0
 11
100.0
 21
206.1343772915877
 31
0.0
  0
LINE
  5
C8
  8
DATA
  6
CONTINUOUS
 62
     7
 10
127.0
 20
188.49999999587001
 30
0.0
 11
127.0
 21
204.49999999587001
 31
0.0
  0
LINE
  5
C9
  8
DATA
  6
CONTINUOUS
 62
     7
 10
111.0
 20
204.49999999587001
 30
0.0
 11
112.0
 21
204.49999999587001
 31
0.0
  0
ARC
  5
CA
  8
DATA
  6
CONTINUOUS
 62
     7
 10
133.08257162062679
 20
196.49999999587001
 30
0.0
 40
4.149999999999995
 50
258.18108008130793
 51
340.52877933569539
  0
LINE
  5
CB
  8
DATA
  6
CONTINUOUS
 62
     7
 10
132.23257161999999
 20
200.56201919805679
 30
0.0
 11
128.08844612237559
 21
200.06796403295999
 31
0.0
  0
ARC
  5
CC
  8
DATA
  6
CONTINUOUS
 62
     7
 10
128.320619895862
 20
203.0681172413793
 30
0.0
 40
3.037566887392992
 50
244.2298234739537
 51
260.09324537618841
  0
ARC
  5
CD
  8
DATA
  6
CONTINUOUS
 62
     7
 10
127.9700662238445
 20
201.0609324109202
 30
0.0
 40
1.0000000000025111
 50
260.09324537622967
 51
276.7986111354756
  0
LINE
  5
CE
  8
DATA
  6
CONTINUOUS
 62
     7
 10
132.23257161999999
 20
192.4379807936831
 30
0.0
 11
128.08844612237559
 21
192.93203595877989
 31
0.0
  0
ARC
  5
CF
  8
DATA
  6
CONTINUOUS
 62
     7
 10
128.320619895862
 20
189.9318827503607
 30
0.0
 40
3.037566887393
 50
99.906754623811707
 51
115.7701765260461
  0
ARC
  5
D0
  8
DATA
  6
CONTINUOUS
 62
     7
 10
127.9700662238445
 20
191.93906758081971
 30
0.0
 40
1.0000000000025111
 50
83.201388864524446
 51
99.906754623770254
  0
LINE
  5
D1
  8
DATA
  6
CONTINUOUS
 62
     7
 10
136.90094823903411
 20
197.74999999587001
 30
0.0
 11
135.33184727338119
 21
197.74999999587001
 31
0.0
  0
LINE
  5
D2
  8
DATA
  6
CONTINUOUS
 62
     7
 10
136.90094823692661
 20
195.24999999587001
 30
0.0
 11
135.33184727338119
 21
195.24999999587001
 31
0.0
  0
ARC
  5
D3
  8
DATA
  6
CONTINUOUS
 62
     7
 10
136.90094823903411
 20
197.84999999587001
 30
0.0
 40
0.1000000000000227
 50
270.0
 51
19.471220634474339
  0
ARC
  5
D4
  8
DATA
  6
CONTINUOUS
 62
     7
 10
133.08257162062679
 20
196.49999999587001
 30
0.0
 40
4.149999999999987
 50
19.471220634490638
 51
101.81891991869649
  0
ARC
  5
D5
  8
DATA
  6
CONTINUOUS
 62
     7
 10
135.33184727338119
 20
197.84999999736041
 30
0.0
 40
0.1000000014904572
 50
216.8698976649701
 51
270.0
  0
ARC
  5
D6
  8
DATA
  6
CONTINUOUS
 62
     7
 10
133.53184727263601
 20
196.49999999587001
 30
0.0
 40
2.1499999999999941
 50
36.869897664814303
 51
323.13010233518571
  0
ARC
  5
D7
  8
DATA
  6
CONTINUOUS
 62
     7
 10
136.90094823692661
 20
195.1499999943797
 30
0.0
 40
0.1000000014902446
 50
340.5287793357723
 51
90.0
  0
ARC
  5
D8
  8
DATA
  6
CONTINUOUS
 62
     7
 10
135.33184727338119
 20
195.14999999437961
 30
0.0
 40
0.1000000014904572
 50
90.0
 51
143.1301023350299
  0
LINE
  5
D9
  8
DATA
  6
CONTINUOUS
 62
     7
 10
113.0
 20
10.0
 30
0.0
 11
114.3
 21
10.0
 31
0.0
  0
LINE
  5
DA
  8
DATA
  6
CONTINUOUS
 62
     7
 10
113.0
 20
188.49999999587001
 30
0.0
 11
113.0
 21
113.2025167827253
 31
0.0
  0
LINE
  5
DB
  8
DATA
  6
CONTINUOUS
 62
     7
 10
113.0
 20
112.0256437511413
 30
0.0
 11
113.0
 21
10.0
 31
0.0
  0
LINE
  5
DC
  8
DATA
  6
CONTINUOUS
 62
     7
 10
114.3
 20
188.49999999587001
 30
0.0
 11
114.3
 21
112.2399332367484
 31
0.0
  0
LINE
  5
DD
  8
DATA
  6
CONTINUOUS
 62
     7
 10
114.3
 20
111.06306020516431
 30
0.0
 11
114.3
 21
10.0
 31
0.0
  0
LINE
  5
DE
  8
DATA
  6
CONTINUOUS
 62
     7
 10
45.499178337186081
 20
277.0
 30
0.0
 11
67.5008216627525
 21
277.0
 31
0.0
  0
LINE
  5
DF
  8
DATA
  6
CONTINUOUS
 62
     7
 10
48.49999999996929
 20
250.0
 30
0.0
 11
48.49999999996929
 21
251.0
 31
0.0
  0
LINE
  5
E0
  8
DATA
  6
CONTINUOUS
 62
     7
 10
48.49999999996929
 20
252.0
 30
0.0
 11
48.49999999996929
 21
255.5
 31
0.0
  0
LINE
  5
E1
  8
DATA
  6
CONTINUOUS
 62
     7
 10
64.499999999969305
 20
250.0
 30
0.0
 11
64.499999999969305
 21
251.0
 31
0.0
  0
LINE
  5
E2
  8
DATA
  6
CONTINUOUS
 62
     7
 10
64.499999999969305
 20
252.0
 30
0.0
 11
64.499999999969305
 21
255.5
 31
0.0
  0
LINE
  5
E3
  8
DATA
  6
CONTINUOUS
 62
     7
 10
44.238145912708397
 20
250.0
 30
0.0
 11
68.761854087230219
 21
250.0
 31
0.0
  0
LINE
  5
E4
  8
DATA
  6
CONTINUOUS
 62
     7
 10
45.403410285140289
 20
265.0
 30
0.0
 11
67.596589714798284
 21
265.0
 31
0.0
  0
ARC
  5
E5
  8
DATA
  6
CONTINUOUS
 62
     7
 10
46.33768656713346
 20
270.95755597014931
 30
0.0
 40
6.3378286912225192
 50
107.7028725882725
 51
107.70287259040281
  0
ARC
  5
E6
  8
DATA
  6
CONTINUOUS
 62
     7
 10
45.499178337186081
 20
272.00000000000489
 30
0.0
 40
4.999999999995139
 50
90.0
 51
128.8120728530711
  0
ARC
  5
E7
  8
DATA
  6
CONTINUOUS
 62
     7
 10
46.33768656713346
 20
270.95755597014931
 30
0.0
 40
6.337828691222521
 50
128.8120728530362
 51
225.70500995037389
  0
ARC
  5
E8
  8
DATA
  6
CONTINUOUS
 62
     7
 10
45.403410285140289
 20
269.99999999999301
 30
0.0
 40
4.9999999999930171
 50
225.7050099503179
 51
270.0
  0
ARC
  5
E9
  8
DATA
  6
CONTINUOUS
 62
     7
 10
66.662313432805121
 20
270.95755597014931
 30
0.0
 40
6.3378286912225237
 50
72.297127409597152
 51
72.297127411727473
  0
ARC
  5
EA
  8
DATA
  6
CONTINUOUS
 62
     7
 10
67.5008216627525
 20
272.00000000000489
 30
0.0
 40
4.999999999995139
 50
51.18792714692885
 51
90.0
  0
ARC
  5
EB
  8
DATA
  6
CONTINUOUS
 62
     7
 10
66.662313432805121
 20
270.95755597014931
 30
0.0
 40
6.337828691222521
 50
314.29499004962599
 51
51.187927146963837
  0
ARC
  5
EC
  8
DATA
  6
CONTINUOUS
 62
     7
 10
67.596589714798284
 20
269.99999999999301
 30
0.0
 40
4.9999999999930083
 50
270.0
 51
314.2949900496821
  0
ARC
  5
ED
  8
DATA
  6
CONTINUOUS
 62
     7
 10
57.240289264967387
 20
257.80776261543571
 30
0.0
 40
16.240289264967402
 50
151.26462291905909
 51
204.06923241835759
  0
ARC
  5
EE
  8
DATA
  6
CONTINUOUS
 62
     7
 10
55.759710734971179
 20
257.80776261543571
 30
0.0
 40
16.240289264967391
 50
335.93076758164261
 51
28.735377080940911
  0
LINE
  5
EF
  8
DATA
  6
CONTINUOUS
 62
     7
 10
46.49999999996929
 20
261.0
 30
0.0
 11
66.49999999996929
 21
261.0
 31
0.0
  0
LINE
  5
F0
  8
DATA
  6
CONTINUOUS
 62
     7
 10
46.49999999996929
 20
258.5
 30
0.0
 11
66.49999999996929
 21
258.5
 31
0.0
  0
LINE
  5
F1
  8
DATA
  6
CONTINUOUS
 62
     7
 10
46.49999999996929
 20
258.5
 30
0.0
 11
46.49999999996929
 21
261.0
 31
0.0
  0
LINE
  5
F2
  8
DATA
  6
CONTINUOUS
 62
     7
 10
66.49999999996929
 20
258.5
 30
0.0
 11
66.49999999996929
 21
261.0
 31
0.0
  0
LINE
  5
F3
  8
DATA
  6
CONTINUOUS
 62
     7
 10
48.49999999996929
 20
255.5
 30
0.0
 11
64.499999999969305
 21
255.5
 31
0.0
  0
LINE
  5
F4
  8
DATA
  6
CONTINUOUS
 62
     7
 10
48.49999999996929
 20
250.0
 30
0.0
 11
64.499999999969305
 21
250.0
 31
0.0
  0
LINE
  5
F5
  8
DATA
  6
CONTINUOUS
 62
     7
 10
48.49999999996929
 20
251.0
 30
0.0
 11
64.499999999969305
 21
251.0
 31
0.0
  0
LINE
  5
F6
  8
DATA
  6
CONTINUOUS
 62
     7
 10
48.49999999996929
 20
252.0
 30
0.0
 11
64.499999999969305
 21
252.0
 31
0.0
  0
LINE
  5
F7
  8
DATA
  6
CONTINUOUS
 62
     7
 10
49.49999999996929
 20
251.0
 30
0.0
 11
49.49999999996929
 21
252.0
 31
0.0
  0
LINE
  5
F8
  8
DATA
  6
CONTINUOUS
 62
     7
 10
63.49999999996929
 20
251.0
 30
0.0
 11
63.49999999996929
 21
252.0
 31
0.0
  0
LINE
  5
F9
  8
DATA
  6
CONTINUOUS
 62
     7
 10
64.499999999969305
 20
240.0
 30
0.0
 11
48.49999999996929
 21
240.0
 31
0.0
  0
LINE
  5
FA
  8
DATA
  6
CONTINUOUS
 62
     7
 10
48.49999999996929
 20
250.0
 30
0.0
 11
48.49999999996929
 21
240.0
 31
0.0
  0
LINE
  5
FB
  8
DATA
  6
CONTINUOUS
 62
     7
 10
64.499999999969305
 20
250.0
 30
0.0
 11
64.499999999969305
 21
240.0
 31
0.0
  0
ARC
  5
FC
  8
DATA
  6
CONTINUOUS
 62
     7
 10
44.238145912708397
 20
252.00000000000011
 30
0.0
 40
2.0000000000000582
 50
204.06923241835909
 51
270.0
  0
ARC
  5
FD
  8
DATA
  6
CONTINUOUS
 62
     7
 10
68.761854087230219
 20
252.0
 30
0.0
 40
1.9999999999999569
 50
270.0
 51
335.93076758164358
  0
ENDSEC
  0
EOF
